Song name
# A B C D E F G H I J K L M N O P Q R S T U V W X Y Z

Dexys Midnight Runners - Come On Eileen tab

-------------------------------------------------------------------------------
			     COME ON EILEEN - Dexy's Midnight Runners
-------------------------------------------------------------------------------
Tabbed by: Justin Weleski
Email: jmw59@pitt.edu

Tuning: Standard

I have only tabbed the lead, since the chords are already tabbed out.

Intro

e|----------------6-9-7-11-14-14--13-11-9--7-6-4h6p4---------------------------|
B|-11-9-7--9-7-7--------------------------------------7-9----------------------|
G|-----------------------------------------------------------------------------|
D|-----------------------------------------------------------------------------|
A|-----------------------------------------------------------------------------|
E|-----------------------------------------------------------------------------|

Intro Two Lead

e|---9-11-9----9-11-9-7-----7-9-6----------------------------------------------|
B|-----------------------7---------7-------------------------------------------|
G|-6---------6-----------------------6-----------------------------------------|
D|-----------------------------------------------------------------------------|
A|-----------------------------------------------------------------------------|
E|-----------------------------------------------------------------------------|

Intro Two Lead pt. 2

e|-16-18-16--16-18-16---16-18-16---13-14-16-16-16---13-14-16-16-16-------------|
B|-----------------------------------------------------------------------------|
G|-----------------------------------------------------------------------------|
D|-----------------------------------------------------------------------------|
A|-----------------------------------------------------------------------------|
E|-----------------------------------------------------------------------------|

Verse (These two riffs are used throughout the first and second verse)

e|-18-16--18-16----AND-----16--13-----------------------------------------------|
B|----------------------------------14------------------------------------------|
G|-------------------------------------13---------------------------------------|
D|------------------------------------------------------------------------------|
A|------------------------------------------------------------------------------|
E|------------------------------------------------------------------------------|

Build Up to Chorus (too-ra, too-ra...)

e|----------------8-9-14-------------------------------------------------------|
B|---------7-9-11--------------------------------------------------------------|
G|-6-8-10----------------------------------------------------------------------|
D|-----------------------------------------------------------------------------|
A|-----------------------------------------------------------------------------|
E|-----------------------------------------------------------------------------|

Chorus

e|---------------------------------------------------------------------------|
B|-----4--------3--------6----9-8--6-----------------------------------------|
G|-3-5-----3-5------3-5------------------------------------------------------|
D|---------------------------------------------------------------------------|
A|---------------------------------------------------------------------------|
E|---------------------------------------------------------------------------|

Post Chorus (guitar part) x2

e|-66-66-66-6-8-6-8-6-----------------------------------------------------------|
B|---------------------8--------------------------------------------------------|
G|------------------------------------------------------------------------------|
D|------------------------------------------------------------------------------|
A|------------------------------------------------------------------------------|
E|------------------------------------------------------------------------------|


| /  slide up
| \  slide down
| h  hammer-on
| p  pull-off
| ~  vibrato
| +  harmonic
| x  Mute note
===============================================================================
Tap to rate this tab
 
# A B C D E F G H I J K L M N O P Q R S T U V W X Y Z