Song name
# A B C D E F G H I J K L M N O P Q R S T U V W X Y Z

Dick Dale - Hava Nagila tab

TITLE: Hava Nagila
As arranged by Dick Dale

Tremelo pick pretty much the whole thing.

Intro:
                                                           E
e|-----------------------------------------------------------------|
B|-----------------------------------------------------------------|
G|-----------------------------------------------------------------|
D|-----------------------------------------------------------------|
A|-----------------------------------------------------------------|
E|-0--12-0-11-0-10-0-9-0-8-0-7-0-6-0-5-0-4-0-3-0-2-0-1\12--0-0-0-0-|


Verse on Low E string:
   E          E          F          E
e|-------------------------------------------|
B|-------------------------------------------|
G|-------------------------------------------|
D|-------------------------------------------|
A|-------------------------------------------|
E|-0-0--4-1-0-4-4--7-5-4-5-5--8-7-5-4--1--0--|  x 2


Chorus 1:
   E          F          F       E
e|-------------------------------------|
B|-------------------------------------|
G|---1-------------------------2-1-----|
D|-2---3-2-2--3-3-2-0-0--0-2-0-----3-2-|
A|-------------------------------------|
E|-------------------------------------|

   E          F          F       E
e|-------------------------------------|
B|-------------------------------------|
G|-1-1-------------------------2-1-----|
D|-----3-2-2--3-3-2-0-0--0-2-0-----3-2-|
A|-------------------------------------|
E|-------------------------------------|

Repeat Verse on Low E string.


Chorus 2:
   E          F          F       E
e|-------------------------------------|
B|-------------------------------------|
G|-1-1-------------------------2-1-----|
D|-----3-2-2--3-3-2-0-0--0-2-0-----3-2-|  x 2
A|-------------------------------------|
E|-------------------------------------|


Verse on High E string:
        (E)  E          E          F          E
e|-1\12-(0)--0-0--4-1-0-4-4--7-5-4-5-5--8-7-5-4--1--0--|  x 2
B|-----------------------------------------------------|
G|-----------------------------------------------------|
D|-----------------------------------------------------|
A|-----------------------------------------------------|
E|-----------------------------------------------------|

Repeat Chorus 2.

Strum the an E chord to the rythem.

Sax Solo tabbed out for guitar:
(the guitar keeps strumming the same rythem to the chords plam muted)

   E          E          F              E
e|---------------------------------------------|
B|---------------------------------------------|
G|---------------------------------------------|
D|---------------------------------------------|
A|---------------------------------------------|
E|-0---4--0---4---7--4---5-----8--7--5--4-1-0--|

   E        E         E
e|---------------------------|
B|---------------------------|
G|--------------------1------|
D|----------------------3-2--|
A|---------------------------|
E|-4-1-0----4-1-0------------|


Back into Chorus.

Repeat Verse on Low E.

Repeat Intro.


Tap to rate this tab
 
# A B C D E F G H I J K L M N O P Q R S T U V W X Y Z