Song name
# A B C D E F G H I J K L M N O P Q R S T U V W X Y Z

Die Heuwels Fantasties - Klein Tambotieboom chords

Highlighted       Show chord diagrams
This is basically the chords. The capo can be placed anywhere on neck to match 
voice pitch. The song sounds good with or without capo.

INTRO:
G      G

       G             C
As die donker my kom haal
       D                Em
En die here my nie soek nie
       G             C
As die osoonlaag vergaan
         D              D
En in 'n kandelaar van sterre val
  G        C       D             Em
Begrawe my hart op Klein Tambotieboom
     G        C         D           G   
En strooi my as oor die Bosveld-horison


Em                         G
Jy het nie 'n graad nie
          Em                          G
En jy het nie 'n kredietkaart nodig nie
          C                  
Om in die agterplaas soos 'n kind te baljaar
       G               D
En die verte in van 'n krans af te staar
C                   G          D
Die gelukkigste wat ek ooit was
       C                      G           D
Op die naat van my rug in die natuurreservaat
    C
Die wind sing my naam
            G           D         C           D
En deur die bottels wat knak hoor ek 'n skaterlag


KOOR:
       G             C
As die donker my kom haal
       D                Em
En die here my nie soek nie
       G             C
As die osoonlaag vergaan
         D              D
En in 'n kandelaar van sterre val
  G        C       D             Em
Begrawe my hart op Klein Tambotieboom
     G        C         D           G   
En strooi my as oor die Bosveld-horison

Em                     
Ge´soleer in donderweer
G
Ver van die wolkekrabbers
                  Em       
Net die atmosfeer wat aan ons kleef
      G                
En 'n wolkbreuk wat my boekdeel spreek
           C
Jy weet ek het nie
           
Jy weet ek het nie
       G          D
Ek het nie 'n agenda nie
C                   G          D
Die gelukkigste wat ek ooit was
       C                      G           D
Op die naat van my rug in die natuurreservaat
    C
Die wind sing my naam
            G           D         C           D
En deur die bottels wat knak hoor ek 'n skaterlag



GUITAR SOLO:
e:-------------------------------------------------------------------|
B:-------------------------------------------------------------------|
G:-----------------------4-------4~~-----------5-4-------------------|
D:-------------4-----5-7---7-5-7-----7-5---5-7-----7-5-7-7h9p7-7h9p7-|
A:-----2-5-5-5---5~~---------------------7---------------------------|
E:-3-5---------------------------------------------------------------|

e:---------------------------------------------------------|
B:---------------------------------------------------------|
G:-------------------------------------------------5-4-----|
D:-------------4-------2-5-5-2-5-------5h7p5---5-7-----7-5-|
A:-----2-5-5-5---5~~-5-----------5-3-2-------7-------------|
E:-3-5-----------------------------------------------------|

e:-----------------|
B:-----------------|
G:-----------------|
D:-7-7h9p7-7h9-5~~-|
A:-----------------|
E:-----------------|


KOOR:
       G             C
As die donker my kom haal
       D                Em
En die here my nie soek nie
       G             C
As die osoonlaag vergaan
         D              D
En in 'n kandelaar van sterre val
  G        C       D             Em
Begrawe my hart op Klein Tambotieboom
     G        C         D           G   
En strooi my as oor die Bosveld-horison

ENJOY AND SHARE!* =)
Tap to rate this tab
# A B C D E F G H I J K L M N O P Q R S T U V W X Y Z