Song name
# A B C D E F G H I J K L M N O P Q R S T U V W X Y Z

Dirty Heads - Shine tab

-----------------------------------------------------------------
Shine by The Dirty Heads
-----------------------------------------------------------------
Tabbed by: Brian Zucker
Email: bnzucker@comcast.net
Tuning: Standard
Intro
e|---------------------------------------------------------------|guitar 1
B|---------------------------------------------------------------|
G|---------------------------------------------------------------|
D|---------------------------------------------------------------|
A|-1--1--1---1----------1--1--1---1-1----------------------------|
E|--------------4--1-------------------4--1----------------------|
    G#  A#m
e|---4s6--6--6--6------------------------------------------------|guitar 2
B|---4s6--6--6--6------------------------------------------------|
G|---5s6--6--6--6------------------------------------------------|
D|---6s8--8--8--8------------------------------------------------|
A|---6s8--8--8--8------------------------------------------------|
E|---4s6--6--6--6------------------------------------------------|

Verse
    A#m     G#
e|--6--6--6--4---------------------------------------------------|after x4 on clean
B|--6--6--6--4---------------------------------------------------|switch to 
G|--6--6--6--5---------------------------------------------------|distortion x4
D|--8--8--8--6---------------------------------------------------|
A|--8--8--8--6---------------------------------------------------|
E|--6--6--6--4---------------------------------------------------|

Chorus
   A#m      G#       Fm        G#
e|--6--------4--------8---------4--------------------------------|
B|--6--------4--------9---------4--------------------------------|
G|--6--------5--------10--------5--------------------------------|
D|--8--------6--------10--------6--------------------------------|
A|--8--------6--------8---------6--------------------------------|
E|--6--------4--------x---------4--------------------------------|
   A#m      G#       Fm
e|--6--------4--------8------------------------------------------|
B|--6--------4--------9------------------------------------------|
G|--6--------5--------10-----------------------------------------|
D|--8--------6--------10---(let ring)----------------------------|
A|--8--------6--------8------------------------------------------|
E|--6--------4--------x------------------------------------------|
   A#m   G#
e|--6--6--4--4---------------------------------------------------|after x3 let 
B|--6--6--4--4---------------------------------------------------|A#m ring
G|--6--6--5--5---------------------------------------------------|
D|--8--8--6--6---------------------------------------------------|
A|--8--8--6--6---------------------------------------------------|
E|--6--6--4--4---------------------------------------------------|

| /  slide up
| \  slide down
| h  hammer-on
| p  pull-off
| ~  vibrato
| +  harmonic
| x  Mute note
Tap to rate this tab
 
# A B C D E F G H I J K L M N O P Q R S T U V W X Y Z