Song name
# A B C D E F G H I J K L M N O P Q R S T U V W X Y Z

Dirty Projectors - The Socialites tab

Hey, I tabbed this after watching this video of a live performance and listening 
closely: http://www.youtube.com/watch?v=SqG_MuesCog

Happy playing!
Mark Rudolf

Capo 9
Finger-picking
Timing: One dash (-) is one sixteenth note

Repeat this twice: "I think she's the prettiest lady I've"
   D       F#7sus
e:-2----2-------7--------------------------------------------------|
B:----3---3---5---5------------------------------------------------|
G:---2---2---6---6-------------------------------------------------|
D:-0---0---4---4---------------------------------------------------|
A:-----------------------------------------------------------------|
E:-----------------------------------------------------------------|

Then, play this twice: "...ever seen."
   Em7     Bm
e:------0----------------------------------------------------------|
B:----3---3-3---3--------------------------------------------------|
G:---4---4----4---4------------------------------------------------|
D:-2---2-----4---4-------------------------------------------------|
A:---------2---2---------------------------------------------------|
E:-----------------------------------------------------------------|

I don't know how to play the chorus. It looks like there is no guitar anyway, but if 
someone wants to figure out the chords anyway that'd be sweet.
Tap to rate this tab
# A B C D E F G H I J K L M N O P Q R S T U V W X Y Z