Song name
# A B C D E F G H I J K L M N O P Q R S T U V W X Y Z

Dirty Rotten Imbeciles - No Sense tab

no sense


D.R.I.


TRANSCRIBED BY RUDY GUZMAN


guzman_84@hotmail.com



e:---------------------------------------------------------------------------------|
B:---------------------------------------------------------------------------------|
G:---------------------------------------------------------------------------------|
D:-8--8--6---8--8--6--3--6--6--4h6p4h6p4h6p4h6p4--6~~~~~--666666666666666666666666-|
A:-8--8--6---8--8--6--3--6--6-----------------------------666666666666666666666666-|
E:-6--6--4---6--6--4--1--4--4-----------------------------444444444444444444444444-|

e:---------------------------------------------------------------------|
B:---------------------------------------------------------------------|
G:---------------------------------------------------------------------|
D:-8--8--6---8--8--6--3--6--6--------------66666666666666666666666666--|
A:-8--8--6---8--8--6--3--6--6--------------66666666666666666666666666--|
E:-6--6--4---6--6--4--1--4--4--2/16--19----44444444444444444444444444--|

e:---------------------------------------------------------------------------------|
B:---------------------------------------------------------------------------------|
G:---------------------------------------------------------------------------------|
D:-8--8--6---8--8--6--3--6--6--4h6p4h6p4h6p4h6p4--6~~~~~--666666666666666666666666-|
A:-8--8--6---8--8--6--3--6--6-----------------------------666666666666666666666666-|
E:-6--6--4---6--6--4--1--4--4-----------------------------444444444444444444444444-|

e:---------------------------------------------------------------------|
B:---------------------------------------------------------------------|
G:---------------------------------------------------------------------|
D:-8--8--6---8--8--6--3--6--6--------------66666666666666666666666666--|
A:-8--8--6---8--8--6--3--6--6--------------66666666666666666666666666--|
E:-6--6--4---6--6--4--1--4--4--2/16--19----44444444444444444444444444--|

                                                            fdBk
e:---------------------------------------------------------------------------------|
B:---------------------------------------------------------------------------------|
G:---------------------------------------------------------------------------------|
D:-8--8--6---8--8--6--3--6--6--4h6p4h6p4h6p4h6p4--6~~~~~---------------------------|
A:-8--8--6---8--8--6--3--6--6------------------------------------------------------|
E:-6--6--4---6--6--4--1--4--4------------------------------------------------------|

e:------------------------------|
B:------------------------------|
G:------------------------------|
D:-8--8--6---8--8--6--3--6--6---|
A:-8--8--6---8--8--6--3--6--6---|
E:-6--6--4---6--6--4--1--4--4---|
Tap to rate this tab
# A B C D E F G H I J K L M N O P Q R S T U V W X Y Z