Song name
# A B C D E F G H I J K L M N O P Q R S T U V W X Y Z

Discharge - Hear Nothing See Nothing Say Nothing tab

Help us improve GuitareTab! Take a short survey!
-----------------------------------------------------------------
Hear Nothing, See Nothing, Say Nothing - Discharge
-----------------------------------------------------------------
Tabbed by: Dillon
Email: Angelic_oioi_upstart@yahoo.com

Tuning:Standard

Verse:
e|---------------------------------------------------------------|
B|---------------------------------------------------------------|
G|-8/11-10101010-------------------------------------------------|
D|-8/11-10101010-------------------------------------------------|
A|-6/-9--8-8-8-8-------------------------------------------------|
E|---------------------------------------------------------------|

Chorus:
e|---------------------------------------------------------------|
B|---------------------------------------------------------------|
G|-4/55----------------------------------------------------------|
D|-4/55----------------------------------------------------------|
A|-2/33----------------------------------------------------------|
E|---------------------------------------------------------------|

| / slide up
| \ slide down
| h hammer-on
| p pull-off
| ~ vibrato
| + harmonic
| x Mute note

#----------------------------------PLEASE NOTE---------------------------------#
#This file is the author's own work and represents their interpretation of the #
#song. You may only use this file for private study, scholarship, or research. #
#------------------------------------------------------------------------------#
Related for Hear Nothing See Nothing Say Nothing tab