Song name
# A B C D E F G H I J K L M N O P Q R S T U V W X Y Z

Discharge - Decontrol tab

Song: Decontrol
Artis: Drist
Album: Orchids and Ammunition

Tabbed by: Slamdunkmk4


E|--------------------------------------|
B|---------------PM----]----------------|
G|---------3---5-----------------3---5--|
D|-0---3---3---5--3-5-3--0---3---3---5--|
A|-0---3---1---3--3-5-3--0---3---1---3--|
D|-0---3----------3-5-3--0---3----------|

E|------------------------------|-------------------------------]
B|------------------------------|-------------------------------]
G|------------------------------|-------------------------------]
D|-0--0-0-0-0-0-0-0-0-0-0-0-0-0-|-3--3-3-3-3-3-3--3h5-3-2-2h3-2-]
A|-0--0-0-0-0-0-0-0-0-0-0-0-0-0-|-3--3-3-3-3-3-3--3h5-3-2-2h3-2-]
D|-0--0-0-0-0-0-0-0-0-0-0-0-0-0-|-3--3-3-3-3-3-3--3h5-3-2-2h3-2-]

E|------------------------------|-------------------------------]
B|------------------------------|-------------------------------]
G|------------------------------|-------------------------------]
D|-0--0-0-0-0-0-0-0-0-0-0-0-0-0-|----5-7-8--7-5---5-7-5---------]
A|-0--0-0-0-0-0-0-0-0-0-0-0-0-0-|-/8------------8-------8-7-8---]
D|-0--0-0-0-0-0-0-0-0-0-0-0-0-0-|-------------------------------]

 [:49]
E|---------------|---------------|------------------|---------------]
B|---------------|---------------|------------------|---------------]
G|-4---5-------1-|-4---5---------|-4---5------------|-4---5---------]
D|-4---5---5---3-|-4---5---5---4-|-4---5--4-4-4-4-5-|-4---5---5---4-]
A|-2---3---5---3-|-2---3---5---4-|-2---3------------|-2---3---5---4-]
D|---------5-----|---------5---4-|------------------|---------5---4-]

E|------------------------------|-------------------------------]
B|------------------------------|-------------------------------]
G|------------------------------|-------------------------------]
D|-0--0-0-0-0-0-0-0-0-0-0-0-0-0-|-3--3-3-3-3-3-3--3h5-3-2-2h3-2-]
A|-0--0-0-0-0-0-0-0-0-0-0-0-0-0-|-3--3-3-3-3-3-3--3h5-3-2-2h3-2-]
D|-0--0-0-0-0-0-0-0-0-0-0-0-0-0-|-3--3-3-3-3-3-3--3h5-3-2-2h3-2-]

E|------------------------------|-------------------------------]
B|------------------------------|-------------------------------]
G|------------------------------|-------------------------------]
D|-0--0-0-0-0-0-0-0-0-0-0-0-0-0-|----5-7-8--7-5---5-7-5---------]
A|-0--0-0-0-0-0-0-0-0-0-0-0-0-0-|-/8------------8-------8-7-8---]
D|-0--0-0-0-0-0-0-0-0-0-0-0-0-0-|-------------------------------]

[Bass Solo]

[Repeat Verse & Chorus]

[2:02]
E|-------------------------------]
B|-------------------------------]
G|-------------------------------]
D|----5-7-8--7-5---5-7-5---------]
A|-/8------------8-------8-7-8---]
D|-------------------------------]

E|---------------------------------------------------------------|
B|----------13-13b-----------13b-------------13b----------13b----|
G|-------15--------15------------15-------15-----15----15-----15-|
D|-12-15---------------12-15--------12-15-----------15-----------|
A|---------------------------------------------------------------|
D|---------------------------------------------------------------|

E|---------------------------------10--10--10--10--10--10--10--|
B|----------13-13b----------13b----13b-13b-13b-13b-13b-13b-13b-|
G|-------15--------15-----------15-----------------------------|
D|-12-15--------------12-15------------------------------------|
A|-------------------------------------------------------------|
D|-------------------------------------------------------------|

E|-10-12-13-12-10-------------------------------------|
B|----------------13-10b---10-11-13-11-10-------------|
G|----------------------------------------12-12b--10--|
D|----------------------------------------------------|
A|----------------------------------------------------|
D|----------------------------------------------------|

E|-17-18-20-18h20p18p17----17-18-17----17-------------------|
B|----------------------20----------20----20-17h18p17----17-|
G|---------------------------------------------trem---19----|
D|----------------------------------------------------------|
A|----------------------------------------------------------|
D|----------------------------------------------------------|

E|----------------------------------------------------------|
B|----------------------------------------------------------|
G|-19-17-19-17----15-17-15-14-15-14-15-14------------9-10-9-|
D|-------------19-------------------------15---10-12--------|
A|----------------------------------------------------------|
D|----------------------------------------------------------|

E|----------------------------------------------------------------------|
B|----------------------------------------------------------------------|
G|-------9-10-9-------9-10-9------ 9-10-9-------10-12-10-------10-12-10-|
D|-10-12--------10-12--------10-12--------10-12----------10-12----------|
A|----------------------------------------------------------------------|
D|----------------------------------------------------------------------|

E|-----------------------------------------|
B|--------------------------------------6--|
G|----------10-12-10----------10-12-10--8b-|
D|-10-12-10----------10-12-10--------------|
A|-----------------------------------------|
D|-----------------------------------------|

E|-----------------------------------------------------|
B|-----------------------------------------------------|
G|-----------------------------------------------------|
D|---------------------------------------0-0--0--0-0-0-|
A|---------------------------------------0-0--0--0-0-0-|
D|-0-2-3-3p2-0-3-5-2-3p2-0--0-2-3-3p2-0--0-0--0--0-0-0-|


http://www.drist.com/









Tap to rate this tab
# A B C D E F G H I J K L M N O P Q R S T U V W X Y Z