Song name
# A B C D E F G H I J K L M N O P Q R S T U V W X Y Z

Discharge - Possibility Of Lifes Destruction tab

-------------------------------------------------------------------------------
		 Possibility Of Life's Destruction - Discharge
-------------------------------------------------------------------------------
Tabbed by:Dave
Email:dave_robinson25@msn.com

Tuning:Standard

Intro/Verse

e|---------------------------------------------------------------------------|
B|---------------------------------------------------------------------------|
G|---------------------------------------------------------------------------|
D|--------4--7--9--10--------------------------------------------------------|
A|--------4--7--9--10--------------------------------------------------------|
E|--------2--5--7--8---------------------------------------------------------|

Chorus

e|---------------------------------------------------------------------------|
B|---------------------------------------------------------------------------|
G|--------------7------------------------------------------------------------|
D|--------------7------------------------------------------------------------|
A|--------------5------------------------------------------------------------|
E|---------------------------------------------------------------------------|
Tap to rate this tab
# A B C D E F G H I J K L M N O P Q R S T U V W X Y Z