Song name
# A B C D E F G H I J K L M N O P Q R S T U V W X Y Z

Disciple - Someday tab

Song: Someday
Artist: Disciple
Album: O God Save Us All
Year: 2013

The tuning is a little bit down on each string, not quite to drop db, but just little 
off from drop d. I know the very first part (the Bm part) is not entirely right, but the 
rest of it sounds pretty good. Please comment, correct, and rate this, this is my first tab.

   Bm                              G                      D
e|---------------------------------------------------------------------------|
B|---------------------------------------------------------------------------|
G|-----4-----4-----2-----4-----4---------------------------------------------|
D|---4-----4-----4-----4---------------4-----4-----2----4-----4-----4-----2--|
A|-2-----2-----2-----2-------2-------2-----2-----2----------0-----0-----0----|
D|---------------------------------5-----5-----5-----5----0-----0-----0------|
   D    F#m
e|------------------------------------|
B|------------------------------------|
G|--------------------------2---------|
D|---4------4-----4-----2-------4-----|     x2
A|--------4-----4-----4---------------|
D|-0----4-----4-----4-----4---4-------|


Here's the outtro (play the first part then this):

  A                                   D
e|------------------------------------2-------------------------------------|
B|-----------------2------------------3-------------------------------------|
G|-----2-----2-----------2----4-------2-------------------------------------|
D|---2-----2-----2-----2--------------0-------------------------------------|
A|-0-----0-----0-----0-----0------------------------------------------------|
D|--------------------------------------------------------------------------|
Tap to rate this tab
# A B C D E F G H I J K L M N O P Q R S T U V W X Y Z