Song name
# A B C D E F G H I J K L M N O P Q R S T U V W X Y Z

Disco Biscuits - Triumph tab

Help us improve GuitareTab! Take a short survey!
Triumph by The Disco Biscuits
Written by Mark "Brownie" Brownstein

   F#
E|-2-|
B|-2-|
G|-3-|    (just ride on the F# before sliding up
D|-4-|      to a G major, then coming back to the 
A|-4-|       F#)
E|-2-|

(verse chords)
   A                   Bm                     C   
E|-5-------------------7----------------------8-|  
B|-5-------------------7----------------------8-|   
G|-6-------------------7----------------------9-|     
D|-7-------------------9---------------------10-|  
A|-7-------------------9---------------------10-|  
E|-5-------------------7----------------------8-|   
 The path to follow was hard to swallow, like a pill in the back 

       D
E|-----10-|
B|-----10-|
G|-----11-|
D|-----12-|
A|-----12-|
E|-----10-|
of your brain.

   A                   Bm                     C   
E|-5-------------------7----------------------8-|  
B|-5-------------------7----------------------8-|   
G|-6-------------------7----------------------9-|     
D|-7-------------------9---------------------10-|  
A|-7-------------------9---------------------10-|  
E|-5-------------------7----------------------8-|   
  Walking in field with a dagger and a shield, and a million

                      G  F#
E|--------------------3--2-|
B|--------------------3--2-|
G|--------------------4--3-|
D|--------------------5--4-|
A|--------------------5--4-|
E|--------------------3--2-|
  little drops of rain..

(chorus)

   Bm      C       D   E  
E|_2---------------------|
B|-3-------5-------7---9-|
G|-4-------5-------7---9-|
D|-4-------5-------7---9-|
A|-2-------3-------5---7-|
E|-----------------------|

   Triumph was the underdog

    G           A        D               C
E|--3-----------5--------------------------|
B|--3-----------5--------7---------------5-|
G|--4-----------6--------7---------------5-| 
D|--5-----------7--------7---------------5-|
A|--5-----------7--------5---------------3-|
E|--3-----------5--------------------------|

  living in the past but reaching for the stars

the riff :)
E|--------------------------|
B|--------------------------|
G|--------------------------|
D|-----------4~-4-3-2-------|
A|-----4-3-2----------4-3-2-|   (repeat for hours if you feel
E|-2-2----------------------|       the need to :)
Related for Triumph tab