Song name
# A B C D E F G H I J K L M N O P Q R S T U V W X Y Z

Disco Biscuits - Rock Candy tab

-----------------------------------------------------------------
Rock Candy - The Disco Biscuits
-----------------------------------------------------------------
Tabbed by: Aceshigh616

Tuning: E Standard
Key: B Minor


Intro:

It's a pretty simple riff, but I think Barber throws in a few
tricky mutes sometimes, so I put up the riff with and without the mutes.

  (without mutes)   (with mutes, make sure they are quickly
                      downpicked and then up-pick the note)

e|----|-----------------|--------------|
B|----|-----------------|--------------|
G|----|-----------------|--------------|
D|5h7-|9--7--5-7----5h7-|9--x7--x5-7---|
A|----|-----------------|--------------|
E|----|-----------------|--------------|


Main Riff:


  Em  D   F#m    Em   G    F#m    Eb    Em

e|--------|----------|-----------|11-11-12---|
B|8-8-7---|10-10-8---|12-12-10---|12-12-12---|
G|9-9-7---|11-11-9---|12-12-11---|11-11(11)--|
D|9-9-7---|11-11-9---|12-12-11---|-----------|
A|--------|----------|-----------|-----------|
E|--------|----------|-----------|-----------|


Alternate Fingering:


  Em  D   F#m  Em   G   F#m  Eb    Em

e|3-3-2---|5-5-3---|7-7-5---|11-11-12---|
B|5-5-3---|7-7-5---|8-8-7---|12-12-12---|
G|4-4-2---|6-6-4---|7-7-6---|11-11(11)--|
D|--------|--------|--------|-----------|
A|--------|--------|--------|-----------|
E|--------|--------|--------|-----------|


Outro Section:

The scale changes from B minor to B Phrygian.
Brownie and Barber jam around the notes C, A, E, C
before Barber plays this riff very similar to the intro.

e|----|-----------------|--------------|
B|----|-----------------|--------------|
G|----|-----------------|--------------|
D|7h9-|10--9--7-9---7h9-|10--9--7-9----|
A|----|-----------------|--------------|
E|----|-----------------|--------------|
Tap to rate this tab
 
# A B C D E F G H I J K L M N O P Q R S T U V W X Y Z