Song name
# A B C D E F G H I J K L M N O P Q R S T U V W X Y Z

Disco Biscuits - Caterpillar tab

The Disco Biscuits - Caterpillar


Main Theme:

e|--3h4-3------|--3-4--3--------------|--3h4-3------|--3-4--3---3-6--8-6~--|
B|6-------6~---|6--------6--4-3--6~---|6-------6~---|6--------6------------|
G|-------------|----------------------|-------------|----------------------|
D|-------------|----------------------|-------------|----------------------|
A|-------------|----------------------|-------------|----------------------|
E|-------------|----------------------|-------------|----------------------|

Theme B:

e|------3--4------------|------3--4-----3--|
B|3-4-6-------6--4--3---|3-4-6-------6-----|
G|----------------------|------------------|
D|----------------------|------------------|
A|----------------------|------------------|
E|----------------------|------------------|

e|------3--4------------|------3--4--3----6--8-6--|
B|3-4-6-------6--4--3---|3-4-6----------6---------|
G|----------------------|-------------------------|
D|----------------------|-------------------------|
A|----------------------|-------------------------|
E|----------------------|-------------------------|


Chorus:

e|---------------------|-----------|------------------|
B|12p10-12p10-12h13p12-|10---------|11p10-11p10-11h13-|
G|---------------------|----11~----|------------------|
D|---------------------|-----------|------------------|
A|---------------------|-----------|------------------|
E|---------------------|-----------|------------------|

e|---------10-|10--------10-10---------|
B|10-11~------|---13-11~-------13-11~--|
G|------------|------------------------|
D|------------|------------------------|
A|------------|------------------------|
E|------------|------------------------|
Tap to rate this tab
 
# A B C D E F G H I J K L M N O P Q R S T U V W X Y Z