Guitaretab - guitar tabs
Song name
# A B C D E F G H I J K L M N O P Q R S T U V W X Y Z

Disturbed - Voices tab

Tuning: 1/2 Step Down, Drop D
	
INTRO:
|--------------|
|--------------|
|--------------|
|-11--9--11--9-|
|--9--9--10--9-|
|--9--9---9--9-|

MAIN RIFF:
|---------------------------------------------------------------|
|---------------------------------------------------------------|
|---------------------------------------------------------------|
|-7-9-7-9-7-9-7-9-/15--7-9-7-9-7-9-7-9-/15--7-9-7-9-7-9-7-9-/15-|
|-7-9-7-9-7-9-7-9-/15--7-9-7-9-7-9-7-9-/15--7-9-7-9-7-9-7-9-/15-|
|-7-9-7-9-7-9-7-9-/15--7-9-7-9-7-9-7-9-/15--7-9-7-9-7-9-7-9-/15-|

|----------------------|
|----------------------|
|----------------------|
|-7-9-7-9-7-9-7-9-XXXX-|
|-7-9-7-9-7-9-7-9-XXXX-|
|-7-9-7-9-7-9-7-9-XXXX-|

VERSE:
|-----------------------------------------------------------|
|-----------------------------------------------------------|
|-----------------------------------------------------------|
|-----------------------------------------------------------|
|-----------------------------------------------------------|
|-7-9-7-9-7-9-7-9-3--7-9-7-9-7-9-7-9-/15--7-9-7-9-7-9-7-9-3-|

|--------------------------------------------------------------|
|--------------------------------------------------------------|
|--------------------------------------------------------------|
|--------------------------------------------------------------|
|----------------------7-9-7-9-7-9-7-9-3--7-9-7-9-7-9-7-9-/15--|
|-7-9-7-9-7-9-7-9-XXX--7-9-7-9-7-9-7-9-3--7-9-7-9-7-9-7-9-/15--|

|-----------------------------------------|
|-----------------------------------------|
|-----------------------------------------|
|-----------------------------------------|
|-7-9-7-9-7-9-7-9-3--7-9-7-9-7-9-7-9-XXX--|
|-7-9-7-9-7-9-7-9-3--7-9-7-9-7-9-7-9-XXX--|

CHORUS:
|----------------------------------|
|----------------------------------|
|----------------------------------|
|-12--12--12-11-10-9--9--9-9--9-12-|
|-12--12--12-11-10-9--9--9-9--9-12-|
|-12--12--12-11-10-9--9--9-9--9-12-|

INTERLUDE:
|----------------------------|
|----------------------------|
|----------------------------|
|----------------------------|
|----------------------------|
|-9-7-10-4-5-7--9-7-10-4-5-7-|

INTERLUDE 2:
|-----------------------------------------------------------|
|-----------------------------------------------------------|
|-----------------------------------------------------------|
|-9-7-10-4-5-7--9-7-10-4-5-7--9-7-10-4-5-7--9-7-10-15-15-15-|
|-9-7-10-4-5-7--9-7-10-4-5-7--9-7-10-4-5-7--9-7-10-15-15-15-|
|-9-7-10-4-5-7--9-7-10-4-5-7--9-7-10-4-5-7--9-7-10-15-15-15-|

INTERLUDE 3:
|------------------------------------------------------|
|------------------------------------------------------|
|------------------------------------------------------|
|---------------------------------------------------10-|
|----------------------------------------------------8-|
|-9-12-9-10-9-12-9-10-9-9-12--9-12-9-10-9-12-9-10-9----|

|-----------------------------------------------------|
|-----------------------------------------------------|
|-----------------------------------------------------|
|-----------------------------------------------------|
|-----------------------------------------------------|
|-9-12-9-10-9-12-9-10-9-9-12--9-12-9-10-9-12-9-101010-|

INTERLUDE 4:
|------------------------------------------------------|
|------------------------------------------------------|
|------------------------------------------------------|
|---------------------------------------------------10-|
|-9-12-9-10-9-12-9-10-9-9-12--9-12-9-10-9-12-9-10-9--8-|
|-9-12-9-10-9-12-9-10-9-9-12--9-12-9-10-9-12-9-10-9----|
[ Tab from: http://www.guitaretab.com/d/disturbed/22999.html ]
Related for Voices tab
×
Voices