Song name
# A B C D E F G H I J K L M N O P Q R S T U V W X Y Z

Disturbed - Hell tab

Disturbed: Hell

Transcribed by: mysticguitar77

Tuning: Drop Db (Db,Ab,Db,Gb,Bb,Eb)

Notes: Alright, here's the first single off of the new Disturbed b-side album, The Lost
Children. Most, if not all, covers and tabs of this song are not played accurately at
all, so I decided to learn it myself. I'm about 95% sure this is how it's played. The 
only part I'm not sure about is the final chord in the chorus. That's definitely the right
spot, but I think the chord is altered slightly while you're strumming. It's very 
subtle, you can only hear the alteration if you listen closely. If anybody can figure it out, 
please let me know. And without further ado, let's begin.

Riff 1   "Rhhhoooooowwwww!!"
Eb|---------------------------------------------------------|
Bb|---------------------------------------------------------|
Gb|---------------------------------------------------------|
Db|-5/8\7-------7---7-----5/8\7-5/8\7-------7---7-----5/8\7-|
Ab|-3/6\5-------5---5-----3/6\5-3/6\5-------5---5-----3/6\5-|
Db|-------0-0-0---0---0-0-------------0-0-0---0---0-0-------|
          * * *   *   * *             * * *   *   * *

Eb|-------------------------------------------------------------------|
Bb|-------------------------------------------------------------------|
Gb|-------------------------------------------------------------------|
Db|-7/10\9-------9---9-----8-----10-----10-----10-----12-----12---8---|
Ab|-5/8-\7-------7---7-----7-----8------8------8------10-----10---6---|
Db|--------0-0-0---0---0-0---0-0----0-0----0-0----0-0----0-0----0---0-|
           * * *   *   * *   * *    * *    * *    * *    * *    *   *

Repeat the top part of Riff 1 and the 2nd time around, play this:

Eb|--------------------------------------------------------------------|
Bb|--------------------------------------------------------------------|
Gb|--------------------------------------------------------------------|
Db|-7/10\9-------9---9-----8-----10-----10-----10-----12-----12---14---|
Ab|-5/8-\7-------7---7-----7-----8------8------8------10-----10---12---|
Db|--------0-0-0---0---0-0---0-0----0-0----0-0----0-0----0-0----0----0-|
           * * *   *   * *   * *    * *    * *    * *    * *    *    *

Eb|--------------------------|
Bb|--------------------------|
Gb|--------------------------|
Db|-0------------------------|
Ab|-0------------------------|
Db|-0------------------------|

Riff 2   "Read me tonight, what the warnings said leave a shudder upon you.."
Eb|-------------------------------------------|
Bb|-------------------------------------------|
Gb|-------------------------------------------|
Db|-------------------------------------------|
Ab|-0-0--0--0-0--0-0-0-0-0-0--0--0-0--0-0-0-0-|
Db|-0-0--0--0-0--0-0-0-0-0-0--0--0-0--0-0-0-0-|
    * *  *  * *  * * * * * *  *  * *  * * * *

Repeat Riff x3, final time play:

Eb|-------------------------------------------|
Bb|-------------------------------------------|
Gb|-------------------------------------------|
Db|-------------------------------------------|
Ab|-0-0--0--0-0--0-0-0-0-0-0--0--0------------|
Db|-0-0--0--0-0--0-0-0-0-0-0--0--0-8--0-7-0-3-|
    * *  *  * *  * * * * * *  *  *

Riff 3   "...ghost of a life, and I can't get around the way you left me..."
Eb|-------------------------------------------|
Bb|-------------------------------------------|
Gb|-------------------------------------------|
Db|-------------------------------------------|
Ab|-------------------------------------------|
Db|-0-0--0--0-0--0-0-0-0-0-0--0--0-0--0-0-0-0-|

Eb|-------------------------------------------|
Bb|-------------------------------------------|
Gb|-------------------------------------------|
Db|-------------------------------------------|
Ab|-------------------------------------------|
Db|-0-0--0--0-0--0-0-0-0-0-0--0--0-8--0-7-0-3-|

Repeat top half of Riff 3 and then play:

Eb|-------------------------------------------|
Bb|-------------------------------------------|
Gb|-------------------------------------------|
Db|-------------------------------------------|
Ab|-------------------------------------------|
Db|-0-0--0--0-0--0-0-0-0-0-0--0--0-3--0-5-0-7-|

Riff 4   "Now I can't stay behind..."
Eb|-------------------------------------------------------------|
Bb|-------------------------------------------------------------|
Gb|-10--10-10-10-10--10-10-10-10--10-10-9--9-9---7--7-7---9-9\7-|
Db|-10--10-10-10-10--10-10-10-10--10-10-x--x-x---x--x-x---x-x-x-|
Ab|-8---8--8--8--8---8--8--8--8---8--8--7--7-7---5--5-5---7-7\5-|
Db|-8---8--8--8--8---8--8--8--8---8--8--0--0-0-0-0--0-0-0-0-0-0-|

Eb|-----------------------------------------------------------------|
Bb|-----------------------------------------------------------------|
Gb|-10--10-10-10-10--10-10-10-10--10-10-----------------------------|
Db|-10--10-10-10-10--10-10-10-10--10-10-----------------------------|
Ab|-8---8--8--8--8---8--8--8--8---8--8------------------------------|
Db|-8---8--8--8--8---8--8--8--8---8--8--0-0-0-0---0-0-0-0---0-0-0-0-|

Eb|-------------------------------------------------------------|
Bb|-------------------------------------------------------------|
Gb|-10--10-10-10-10--10-10-10-10--10-10-9--9-9---7--7-7---9-9\7-|
Db|-10--10-10-10-10--10-10-10-10--10-10-x--x-x---x--x-x---x-x-x-|
Ab|-8---8--8--8--8---8--8--8--8---8--8--7--7-7---5--5-5---7-7\5-|
Db|-8---8--8--8--8---8--8--8--8---8--8--0--0-0-0-0--0-0-0-0-0-0-|

Eb|---------------------------------------------------|
Bb|---------------------------------------------------|
Gb|--------------------------8--8-8-8-8--8-8-8-8--8-8-|
Db|-6--6-6-6-6--6-6-6-6--6-6-8--8-8-8-8--8-8-8-8--8-8-|
Ab|-6--6-6-6-6--6-6-6-6--6-6-6--6-6-6-6--6-6-6-6--6-6-|
Db|-6--6-6-6-6--6-6-6-6--6-6-6--6-6-6-6--6-6-6-6--6-6-|

Play 2nd alteration of Riff 1   "Burning now I bring you hell!"
Play Riff 2   "Free me tonight..."
Play Riff 3   "Bloodlust tonight..."
Play Riff 4   "Now I can't stay behind..."

Riff 5   "All my emotion and all my integrity..."
Eb|-------10--------------------10------------------|
Bb|-------13b15-----------6-----13b15-----------4---|
Gb|-----------------------5---------------------6b8-|
Db|-------------------------------------------------|
Ab|-0-0-0-------0--0-0--0-----0-------0--0-0--0-----|
Db|-0-0-0-------0--0-0--0-----0-------0--0-0--0-----|
    * * *       *  * *  *     *       *  * *  *

Note: This is the signature Dan Donegan riff. He uses these types of bends in a lot of
his writing. To correctly play it, you bend the note to the pitch of the note under it.
So, say for the first bend, you bend the 13th fret of the B string to the pitch of the 
10th fret of the high E string. This creates a cool dissonance within the bend to create
that effect.

Play Riff 5 x6 (last time through, exclude the last bend)
Play Riff 4   "Now I can't stay behind..."

Riff 6
Eb|---------------------------------------------------------------|
Bb|---------------------------------------------------------------|
Gb|-10--10-10-10-10--10-10-10-10--10-10---------------------------|
Db|-10--10-10-10-10--10-10-10-10--10-10---------------------------|
Ab|-8---8--8--8--8---8--8--8--8---8--8--0-0-0-0-0-0-0-0-0-0-0-0-0-|
Db|-8---8--8--8--8---8--8--8--8---8--8--0-0-0-0-0-0-0-0-0-0-0-0-0-|
                                          * * * *   * * * *   * *

Play Riff 6 x3 (then play last part of Riff 4 with a downward slide at the end)
Play Riff 1   "Burning now I bring you hell!"

Final notes: Listen to the song for when each part kicks in and follow all my notes
because I follow the song exactly when tabbing it, nothing gets left out. Enjoy!
Tap to rate this tab
# A B C D E F G H I J K L M N O P Q R S T U V W X Y Z