Song name
# A B C D E F G H I J K L M N O P Q R S T U V W X Y Z

Dizzy Mizz Lizzy - Break tab

    ____________________
   / Dizzy Mizz Lizzy  /  Many of dizzy's lyrics weren't supposed to be deep
  / Break             /  poetic master pieces, but were often written just to
 / Rotator           /  serve the rest of the music, Tim C once said in an
/___________________/  interview. I think this is one of those  ;)

*********************************************************************************
*                                                                               *
*  follow this link to my Guitar Pro-version of this tab                        *
*  - including both guitar tracks and the bass:                                 *
*  http://www.ultimate-guitar.com/tabs/d/dizzy_mizz_lizzy/break_guitar_pro.htm  *
*                                                                               *
*********************************************************************************


Tuning: Full Step Down (D G C F A D)

 Intro (part1):
A round here is three bars. The Ride Bell is played on all four beats,
so it's easy to follow the rhythm by following that.
The Bass Drum and Tom play the these 3-groupings, which the guitar
follows:

 4/4
  PM all the 7's
  1      2      3      4        1      2      3      4
|-----------------------------|-----------------------------|
|-----------------------------|-----------------------------|
|-----------------------------|-----------------------------|
|-----------------------------|-----------------------------|
|---5----5----5-----5----5----|-5----5-----5----6----6----6-|
|-7----7----7-----7----7----7-|----7-----7----7----7----7---|


  1      2      3      4
|-----------------------------|
|-----------------------------|
|-----------------------------|
|-----------------------------|
|-----6----6----6----6-----6--|
|---7----7----7----7-----7----|




 (part2 / chorus):
 1/4     4/4                     3/4
                   PM   PM    PM                PM
|-------|-----------------------|---------------------|
|-------|-----------------------|---------------------|
|-8--9--|-(9)\------------------|---------------------|
|-8--9--|-(9)\------------------|---------------------|
|-6--7--|-(7)\--------5----5----|----5--x-x-x-4----4--|
|-------|------12\--7----7----3-|-0-----x-x-x----5----|


                              1.,2.                 3.
   4/4                        3/4                   4/4
            PM--|    PM                    PM                    PM    PM-|
||---------------------------|--------------------||-------------------------|
||o--------------------------|-------------------o||-------------------------|
||---------------------------|--------------------||-------------------------|
||---------------------------|--------------------||-------------------------|
||o------7---------5----5----|---5-x-x-x-4----4--o||---5-x-x-x-4----4--5--7--|
||--0-------7-7-7----7----3~~|-----x-x-x----5-----||-----x-x-x----5----------|




 Interlude:
 4/4
      PM--|   PM------------|   PM----------------|        PM|
|-----------------|-----------------|------------------|---------------|
|-----------------|-----------------|------------------|---------------|
|-----------------|-----------------|------------------|---------9\----|
|-----6---5h6---7-|---5-6---5h6---7-|-----6---5h6p5----|---------9\----|
|-----7-7-7---7-7-|-7-7-7-7-7---7-7-|-7-7-7-7-7-----7\-|---------7\----|
|-----------------|-----------------|------------------|---0-0---------|




 Verse:
  D             G/d                   E7/d               D
   PM  PM   PM|     PM----|   PM--|    PM  PM   PM|        PM|
|-----------------|-----------------|------------------|---------------|
|-----------------|-----------------|------------------|---------------|
|-9---------------|---------9-------|------------------|---------9\----|
|-6---6---6-----7-|---------7-------|-8---8---8--------|---------9\----|
|-7-7-7-7-7-7-7-7-|-7-7-7-7-7-7-7-7-|-7-7-7-7-7-7-7-7\-|---------7\----|
|-----------------|-----------------|------------------|---0-0---------|


  D             G/d                   E7/d               D
   PM  PM   PM|     PM   PM   PM--|    PM  PM   PM|        PM|
|-----------------|-----------------|------------------|---------------|
|-----------------|-----------------|------------------|---------------|
|-----------------|-----------------|------------------|---------9\----|
|-6---6---6-----7-|---7-7---7-------|-8---8---8--------|---------9\----|
|-7-7-7-7-7-7-7-7-|-7-7-7-7-7-7-7-7-|-7-7-7-7-7-7-7-7\-|---------7\----|
|-----------------|-----------------|-----0------------|---0-0---------|




 Pre-Chorus:
  D       D/f#      G       Csus2     D       D/f#  G           Csus2
|-----------------|-----------------|-----------------|-----------------|
|-----------------|-----------------|-----------------|-----------------|
|-9---9---9-9-9-9-|-9-9-9-9-9---9-9-|-9---9---9-9-9-9-|---9-9-9-9---9-9-|
|-9---9---6-6-6-6-|-7-7-7-7-7---7-7-|-9---9---6-6-6-7-|---7-7-7-7---7-7-|
|-7---7---7-7-7-7-|-7-7-7-7-5---5-5-|-7---7---7-7-7-7-|---7-7-7-5---5-5-|
|-----------------|-----------------|-----------------|-----------------|


  D       D/f#      G       Csus2     D       C5    A
|-----------------|-----------------|-----------------|-----------------|
|-----------------|-----------------|-----------------|-----------------|
|-9---9---9-9-9-9-|-9-9-9-9-9---9-9-|-9---9-9-7-7-7---|-----------------|
|-9---9---6-6-6-6-|-7-7-7-7-7---7-7-|-9---9-9-7-7-7-9-|---9-------------|
|-7---7---7-7-7-7-|-7-7-7-7-5---5-5-|-7---7-7-5-5-5-9-|---9-------------|
|-----------------|-----------------|---------------7-|---7-------------|
                                 "...but I don't be-lieve it"




 Chorus:
   4/4                        3/4                  4/4
            PM--|    PM-|                   PM              PM--|    PM
||---------------------------|--------------------|--------------------------|
||o--------------------------|--------------------|--------------------------|
||---------------------------|--------------------|--------------------------|
||---------------------------|--------------------|--------------------------|
||o------7---------5----5----|----5-x-x-x-4----4--|------7---------5----5----|
||--0-------7-7-7----7----3--|-0----x-x-x----5----|-0-------7-7-7----7----3~~|


 1.                    2.
 3/4                   4/4
              PM                    PM    PM-|
|--------------------||-------------------------|
|-------------------o||-------------------------|
|--------------------||-------------------------|
|--------------------||-------------------------|
|---5-x-x-x-4----4--o||---5-x-x-x-4----4--5--7--|
|-----x-x-x----5-----||-----x-x-x----5----------|




 Interlude:
similar to previous


 Verse:
similar to previous


 Pre-Chorus:
similar to previous


 2x Chorus:
similar to previous,
but the last bar the first time is just as the other 3/4-bars.




 Bridge:
    Em9               A7add13             Am7add13          Am7
                                       3x
||------------------|------------------||-----------------|-----------------|
||o---------9-------|-------9---------o||---------9-------|-------10--------|
||------9-----9-----|---8-------8------||-----7-----7-----|---7-------7-----|
||--------7-----7---|-----7-------7----||-------7-----7---|-----7-------7---|
||o-9-------------9-|-----------------o||-9-------------9-|---------------7-|
||------------------|------------------||-----------------|-----------------|




 Bridge-Verse:
    Em9               A7add13             Am7add13          Am7
                                       3x
||------------------|------------------||-----------------|--------------------|
||o---------9-------|-------9---------o||---------9-------|-----9---10-x-x-----|
||------9-----9-----|---8-------8------||-----7-----7-----|---7---7----x-x-----|
||--------7-----7---|-----7-------7----||-------7-----7---|------------x-x-----|
||o-9-------------9-|-----------------o||-9-------------9-|------------x-x-----|
||------------------|------------------||-----------------|----------------10\-|




 The Musicians' Playground part:
(tonzer)
 4/4
  PM-------------------|          PM------|       PM--|       PM
|-------------------------------|---------------------------------|
|-------------------------------|---------------------------------|
|-------------------------------|---------------------------------|
|--------------------------14\--|---------------------------------|
|---------------------------x---|---------------------------------|
|-0---0-0-12-0---0-0---0---12\--|-0---4---6-5~~~--3---0-3~~~--0---|


  PM------------------|          PM
|------------------------------|---------------------------------|
|------------------------------|---------------------------------|
|------------------------------|---------------------------------|
|-------------------------14\--|----/6-----------5---------------|
|--------------------------x---|-----x-----------x-----------2---|
|-3-0-0-0-0-0---0-0---0---12\--|-0--/4-----------3-----------0---|


  PM-------------------|          PM------|       PM--|       PM
|-------------------------------|---------------------------------|
|-------------------------------|---------------------------------|
|-------------------------------|---------------------------------|
|--------------------------14\--|---------------------------------|
|---------------------------x---|---------------------------------|
|-----0-0-12-0---0-0---0---12\--|-0---4---6-5~~~--3---0-3~~~--0---|


  PM------------------|          PM                          PM
|------------------------------|---------------------------------|
|------------------------------|---------------------------------|
|------------------------------|---------------------------------|
|-------------------------14\--|----/6-----------7---------------|
|--------------------------x---|-----x-----------x---------------|
|-3-0-0-0-0-0---0-0---0---12\--|-0--/4-----------5-----------6---|



(double intro)
  4/4
    again PM all the 7's
||------------------------------|-----------------------------|
||o-----------------------------|-----------------------------|
||------------------------------|-----------------------------|
||------------------------------|-----------------------------|
||o---5----5----5-----5----5----|-5----5-----5----6----6----6-|
||--7----7----7-----7----7----7-|----7-----7----7----7----7---|

                                 1/4
|------------------------------||---------|
|-----------------------------o||---------|
|------------------------------||-8---9\--|  ...then a similar
|------------------------------||-8---9\--|  tonzer part again
|-----6----6----6----6-----6--o||-6---7\--|
|---7----7----7----7-----7-----||---------|




 Pre-Chorus:
similar to previous,
however there's an extension at the end:

     D       C5    A
   |-----------------|-----------------|------------------|
   |-----------------|-----------------|------------------|
   |-9---9-9-7-7-7---|---------7-7-7-8-|---8--------------|
   |-9---9-9-7-7-7-9-|---9-------------|------------------|
   |-7---7-7-5-5-5-9-|---9-----5-5-5-6-|---6--------------|
   |---------------7-|---7-------------|---------12\------|
"...but I don't be-lieve it"




 2x Chorus:
similar to previous




 Outro:
 4/4
  and again PM all the 7's
  1      2      3      4        1      2      3      4
|-----------------------------|-----------------------------|
|-----------------------------|-----------------------------|
|-----------------------------|-----------------------------|
|-----------------------------|-----------------------------|
|---5----5----5-----5----5----|-5----5-----5----6----6----6-|
|-7----7----7-----7----7----7-|----7-----7----7----7----7---|


  1      2      3      4
|-----------------------------|-----------|
|-----------------------------|-----------|
|-----------------------------|-8--9\-----|
|-----------------------------|-8--9\-----|
|-----6----6----6----6-----6--|-6--7\-----|
|---7----7----7----7-----7----|-----------|



- 9th /February /08
Just mail me at Maitinin@gmail.com with questions, comments and corrections!
Tap to rate this tab
# A B C D E F G H I J K L M N O P Q R S T U V W X Y Z