Song name
# A B C D E F G H I J K L M N O P Q R S T U V W X Y Z

Don Omar - Luna tab

-------------------------------------------------------------------------------
			     LUNA - SUGIZO
-------------------------------------------------------------------------------

SUGIZO Official Website : http://www.sugizo.com/

Tabbed by: acidjames
Email: acidjames at gmail dot com

Tuning: Standard

Guitar : Acoustic

Chords :

[ X 4 X 4 4 X ]
[ X 0 X 4 4 X ]
[ 4 X X 4 4 X ]
[ 2 X X 4 4 X ]
[ X 4 X 4 4 4 ]
[ X 0 X 4 4 4 ]
[ 4 X X 4 4 4 ]
[ 2 X X 4 4 4 ]

A beautiful acoustic piece by SUGIZO again, written for his newborn daughter, 
you can hear her in the middle of the track

The picking of this song is a bit fast and i personally use thumb + 3 digits

This song is extermely repetitive so i won't tab ALL the song or this tab would be
like 300 pages long ^^

Add the usual Sugizo stereo delay and you're good 


This part goes on for quite long :

e|---------------------0-------------------------------------0----------------|
B|-------------4-----------4------4-------------------4-----------4------4----|
G|---------4-------4-----------4-----------------4-------4-----------4--------|
D|----------------------------------------------------------------------------|
A|-----4----------------------------------4-----------------------------------|
E|----------------------------------------------------------------------------|



e|---------------------0-------------------------------------0----------------|
B|-------------4-----------4------4-------------------4-----------4------4----|
G|---------4-------4-----------4-----------------4-------4-----------4--------|
D|----------------------------------------------------------------------------|
A|-----0----------------------------------0-----------------------------------|
E|----------------------------------------------------------------------------|


This part is short :


e|------------------0--------------0----------------0------|
B|-------------4---------------4-----------------4---------|
G|---------4----------------4-----------------4------------|
D|---------------------------------------------------------|
A|-----0---------------------------------------------------|
E|----------------------4-----------------2----------------|


Similar to the first part :

e|---------------------0-------------------------------------0----------------|
B|-------------4-----------4------4-------------------4-----------4------4----|
G|---------4-------4-----------4-----------------4-------4-----------4--------|
D|----------------------------------------------------------------------------|
A|----------------------------------------------------------------------------|
E|-----2----------------------------------2-----------------------------------|



e|---------------------0-------------------------------------0----------------|
B|-------------4-----------4------4-------------------4-----------4------4----|
G|---------4-------4-----------4-----------------4-------4-----------4--------|
D|----------------------------------------------------------------------------|
A|----------------------------------------------------------------------------|
E|-----4----------------------------------4-----------------------------------|



And then this part is similar to the beggining of the track but with the first 
string fretted at 4 :




e|---------------------4-------------------------------------4----------------|
B|-------------4-----------4------4-------------------4-----------4------4----|
G|---------4-------4-----------4-----------------4-------4-----------4--------|
D|----------------------------------------------------------------------------|
A|-----4----------------------------------4-----------------------------------|
E|----------------------------------------------------------------------------|



e|---------------------4-------------------------------------4----------------|
B|-------------4-----------4------4-------------------4-----------4------4----|
G|---------4-------4-----------4-----------------4-------4-----------4--------|
D|----------------------------------------------------------------------------|
A|-----0----------------------------------0-----------------------------------|
E|----------------------------------------------------------------------------|


PS : If any of you have some other SUGIZO tabs please send them 
my email adress


| /  slide up
|   slide down
| h  hammer-on
| p  pull-off
| ~  vibrato
| +  harmonic
| x  Mute note
===============================================================================
Tap to rate this tab
 
# A B C D E F G H I J K L M N O P Q R S T U V W X Y Z