Song name
# A B C D E F G H I J K L M N O P Q R S T U V W X Y Z

Don Omar - Pobre Diabla tab

esta es la manera corecta de hacer el intro

e|----------------------------------------------------------------------------------------------------|
b|----1--------------0--1-1-1-1-1-1--0-----0---0-1---------------0-1-1-1-1-1-1-0----0---0--1----------|
g|------2-------2-2--------------------------2------2--------2-2----------------------2-------2-------|
d|----------------------------------------------------------------------------------------------------|
a|----------------------------------------------------------------------------------------------------|
E|----------------------------------------------------------------------------------------------------|


e|----------------------------------------------------|
b|------0--1---5----1------1^0------------------------|
g|----2-----------------------2-----------------------|
d|-------------------------------3--2-----------------|
a|----------------------------------------------------|
E|----------------------------------------------------|

punteo de la segunda guitarra(originalmente es un cuatro)
    Lam
e|--------------------------------------------------------------------------------------|
b|-----1------3-1------------1------3-1-------------1-----5-3-0---------1-----5-3-0-----|
g|----2-----------3---------2-----------3----------2-------------------2----------------|
d|---2---------------------2----------------------2-------------------2-----------------|
a|--------------------------------------------------------------------------------------|
E|--------------------------------------------------------------------------------------|
Tap to rate this tab
# A B C D E F G H I J K L M N O P Q R S T U V W X Y Z