Down The Line - Martyr tab

Please note: I am a solo guitarist so all my music will pretty much only be for one 
only, I'm staying away from all thoses solos
this song is played with many guitar players and a bassist... O_o

To really play this song well, you must listen to the full version, which I believe is 
on youtube. I'd suggest just buying it off of itunes.

For the intro, this is how i play it. The song itself is an octave higher but I find 
just plain hard to play so I use this one.

Intro:
|--2-3-5-3-2-0---2-x--|
|--3-3-3-3-3-2---3-3--|
|--2-3-3-3-2-2---2-2--|
|------------------0--|
|---------------------|
|---------------------| x3

|--2-3-5-3-2-0-------|
|--3-3-3-3-3-2--<7>--|
|--2-3-3-3-2-2-------|
|--------------------|
|--------------------|
|--------------------| x1

Verses:
|----2^0--------x----------|
|--------3------x-------3--|
|---------------x-----0----|
|--0----------2-x----------|
|----------2--3-x---2------|
|---------------x-3--------| x2

|----0^2^0--------x---------3-|
|----------3------x-------3---|
|-----------------x-----0-----|
|--0------------2-x-----------|
|------------2--3-x---2-------|
|-----------------x-3---------|

|----0^2^0--------x----------|
|----------3------x-------3--|
|-----------------x-----0----|
|--0------------2-x----------|
|------------2--3-x---2------|
|-----------------x-3--------| x3

|----2^0------0-|
|--------3----3-|
|-------------0-|
|--0----------2-|
|----------2--3-|
|---------------|

Pre-chorus
|-0----0-------0-0----------0----0-0----------0-|
|--1---1-------1-1----------1----1-1----------1-|
|--2---2-------2-0----------2----2-0----------0-|
|---2--2-------0-2----------2----0-2----------3-|
|---0--0-------2-3----3-2-1-0----2-3----3-2-0-3-|
|---------------------------------------------1-|

Chorus:
|-2---3---0---3---2---3---0--0--3--|
|-3---0---1---0---3---0---1--0--0--|
|-2---0---0---0---2---0---0--0--0--|
|-0---0---2---0---0---0---2--2--0--|
|-----2---3---2-------2---3--2--2--|
|-----3-------3-------3------0--3--| x2


Check out Down the line band at http://www.downthelineband.com/
Tap to rate this tab
 
# A B C D E F G H I J K L M N O P Q R S T U V W X Y Z