Song name
# A B C D E F G H I J K L M N O P Q R S T U V W X Y Z

Down The Line - Give In Again tab

Capo 5th fret
Tuning: Standard

Trust me, it's right.



Intro/Verses

|--0---0--0---0----0---0-0---0---3----3--3------3-3----|
|--1---1--1---1----1---1-1---1---0----0--0------0-0----|
|--0---0--0^2-0----0---0-0---0---0----0--0------0-0----|
|--3---3--3---3----2---0-0^2-0---0----0--0------0-0----|
|--x---x--x---x----3---3-3---3---2----0--0^2----2-2^0--|
|--1---1--1---1----x---x-x---x---3----3--3------3-3----|


Chorus

|--0-----0-----0-----3--|
|--1-----1-----1-----0--|
|--0-----0-----0-----0--|
|--2-----3-----2-----0--|
|--0-----x-----3-----2--|
|--x-----1-----x-----3--|



Bridge (palm mute on top two notes for the first chord)

|--x-------0----3----0--|
|--x-------1----0----1--|
|--0-------0----0----0--|
|--0-------2----0----2--|
|--0-------3----2----0--|
|--3-------x----3----x--|x2


|--x-------0----3----0-----0----3--|
|--x-------1----0----1-----1----0--|
|--0-------0----0----0-----0----0--|
|--0-------2----0----2-----3----0--|
|--0-------3----2----0-----x----2--|
|--3-------x----3----x-----1----3--|


Check out Down the Line at www.downthelineband.com
Tap to rate this tab
 
# A B C D E F G H I J K L M N O P Q R S T U V W X Y Z