Song name
# A B C D E F G H I J K L M N O P Q R S T U V W X Y Z

Dream Evil - The Mirror tab

Tabbed by: Joshua Garcia (joshuag523@aol.com)

Tabs for the song: The Mirror by Dream Evil
Please rate and let me know if you have any corrections. Thank you.


Tuning: Drop C (C G C F A D)


Intro
Guitar 1:
D||-------------------------------------------------------------------|
A||------0-----0-----3-----3-----------------0---------------3--------|
F||----0-----0-----0-----0-----0---0-----0-----0---0-----0-----0---0--|
C||--2-----4-----5-----4-----2---0-----4---------4-----4---4-----4----| x4
G||----------------------------------3-----3---------2----------------|
C||-------------------------------------------------------------------|


Guitar 2:
D||----0-----0-----0-----0--------------0-----0-----0---------7--------|
A||------8-----8-----8-----10-8---8-------8-----8---------7-----8-7----|
F||--9-----9-----9-----9--------9---9-7-----7-----7-----7---7-------9--|
C||---------------------------------------------------7----------------| x2
G||--------------------------------------------------------------------|
C||--------------------------------------------------------------------|



Main Riff
Guitar 1/2:
D||----------|
A||----------|
F||----------|
C||--//12\\--|
G||--//12\\--|
C||--//12\\--|


D||-----------------------------------|------------------------------------|
A||-----------------------------------|------------------------------------|
F||-----------------------------------|------------------------------------|
C||--0-2---5-7---0-2---3-2------------|--0-2---5-7---0-2---/8---7---5---7--|
G||--0-2---5-7---0-2---3-2------------|--0-2---5-7---0-2---/8---7---5---7--|
C||--0-2-x-5-7-x-0-2-x-3-2-2-2-2-2-2--|--0-2-x-5-7-x-0-2-x-/8---7---5---7--|
                           . . . . .

D||-----------------------------------|-----------------------------------|
A||-----------------------------------|-----------------------------------|
F||-----------------------------------|--------------------2-4---5-7~--\--|
C||--0-2---5-7---0-2---3-2------------|--0-2---5-7---0-2---2-4---5-7~--\--|
G||--0-2---5-7---0-2---3-2------------|--0-2---5-7---0-2---0-2---3-5~--\--|
C||--0-2-x-5-7-x-0-2-x-3-2-2-2-2-2-2--|--0-2-x-5-7-x-0-2-x-----x----------|
                           . . . . .



Verse
Guitar 1/2:
D||-----------------------------------|-----------------------------------|
A||-----------------------------------|-----------------------------------|
F||-----------------------------------|-----------------------------------|
C||--2--------------------------------|--0-2---5-7---0-2---3-2---5-7~--5--|
G||--2--------------------------------|--0-2---5-7---0-2---3-2---5-7~--5--|
C||--2-2-2-2-2-2-2-2-2-2-2-2-2-2-2-2--|--0-2-x-5-7-x-0-2-x-3-2-x-5-7~--5--|
       . . . . . . . . . . . . . . .


D||-----------------------------------|-----------------------------------|
A||-----------------------------------|-----------------------------------|
F||-----------------------------------|--------------------2-4---5-7~--\--|
C||--2--------------------------------|--0-2---5-7---0-2---2-4---5-7~--\--|
G||--2--------------------------------|--0-2---5-7---0-2---0-2---3-5~--\--|
C||--2-2-2-2-2-2-2-2-2-2-2-2-2-2-2-2--|--0-2-x-5-7-x-0-2-x-----x----------|
       . . . . . . . . . . . . . . .



Pre-Chorus
Guitar 1/2:
D||--------------------------------------------------------------------|
A||--------------------------------------------------------------------|
F||------4-----4-----4-----4-----4--------5-----5-----5-----5-----5----|
C||----4-----4-----4-----4-----4--------5-----5-----5-----5-----5------|
G||--2-----2-----2-----2-----2-----2--3-----3-----3-----3-----3-----3--|
C||--------------------------------------------------------------------|
     . .   . .   . .   . .   . .      . .   . .   . .   . .   . .


D||-------------------------|
A||-------------------------|
F||-------------------------|
C||--0-2---5-7---0-2---3-2--|
G||--0-2---5-7---0-2---3-2--|
C||--0-2-x-5-7-x-0-2-x-3-2--|



Verse
Guitar 1/2:
D||-----------------------------------|-----------------------------------|
A||-----------------------------------|-----------------------------------|
F||-----------------------------------|-----------------------------------|
C||--2--------------------------------|--0-2---5-7---0-2---3-2---5-7~--5--|
G||--2--------------------------------|--0-2---5-7---0-2---3-2---5-7~--5--|
C||--2-2-2-2-2-2-2-2-2-2-2-2-2-2-2-2--|--0-2-x-5-7-x-0-2-x-3-2-x-5-7~--5--|
       . . . . . . . . . . . . . . .


D||-----------------------------------|-----------------------------------|
A||-----------------------------------|-----------------------------------|
F||-----------------------------------|--------------------2-4---5-7~--\--|
C||--2--------------------------------|--0-2---5-7---0-2---2-4---5-7~--\--|
G||--2--------------------------------|--0-2---5-7---0-2---0-2---3-5~--\--|
C||--2-2-2-2-2-2-2-2-2-2-2-2-2-2-2-2--|--0-2-x-5-7-x-0-2-x-----x----------|
       . . . . . . . . . . . . . . .



Pre-Chorus
Guitar 1/2:
D||--------------------------------------------------------------------|
A||--------------------------------------------------------------------|
F||------4-----4-----4-----4-----4--------5-----5-----5-----5-----5----|
C||----4-----4-----4-----4-----4--------5-----5-----5-----5-----5------|
G||--2-----2-----2-----2-----2-----2--3-----3-----3-----3-----3-----3--|
C||--------------------------------------------------------------------|
     . .   . .   . .   . .   . .      . .   . .   . .   . .   . .


D||----------------------------------------------------------------|
A||----------------------------------------------------------------|
F||------7-----7-----7-----7-----7---------------------------------|
C||----7-----7-----7-----7-----7-------5---5---5-4~----------------|
G||--5-----5-----5-----5-----5-----5---5---5---5-5~--\\\pick\\\\---|
C||------------------------------------5---5---5-4~---\\\slide\\\--|
     . .   . .   . .   . .   . .



Chorus
Guitar 1/2:
D||-----------------------------------|------------------------------------|
A||-----------------------------------|------------------------------------|
F||-----------------------------------|------------------------------------|
C||--0-2---5-7---0-2---3-2------------|--0-2---5-7---0-2---/8---7---5---7--|
G||--0-2---5-7---0-2---3-2------------|--0-2---5-7---0-2---/8---7---5---7--|
C||--0-2-x-5-7-x-0-2-x-3-2-2-2-2-2-2--|--0-2-x-5-7-x-0-2-x-/8---7---5---7--|
                           . . . . .

D||-----------------------------------|------------------------------------|
A||-----------------------------------|------------------------------------|
F||-----------------------------------|--5~-------------7~-----------------|
C||--0-2---5-7---0-2---3-2------------|--5~-------------7~---------//12\\--|
G||--0-2---5-7---0-2---3-2------------|--3~-------------5~---------//12\\--|
C||--0-2-x-5-7-x-0-2-x-3-2-2-2-2-2-2--|----------------------------//12\\--|
                           . . . . .

D||-----------------------------------|
A||-----------------------------------|
F||--------------------2-4---5-7~--\--|
C||--0-2---5-7---0-2---2-4---5-7~--\--|
G||--0-2---5-7---0-2---0-2---3-5~--\--|
C||--0-2-x-5-7-x-0-2-x-----x----------|



Verse
Guitar 1/2:
D||-----------------------------------|-----------------------------------|
A||-----------------------------------|-----------------------------------|
F||-----------------------------------|-----------------------------------|
C||--2--------------------------------|--0-2---5-7---0-2---3-2---5-7~--5--|
G||--2--------------------------------|--0-2---5-7---0-2---3-2---5-7~--5--|
C||--2-2-2-2-2-2-2-2-2-2-2-2-2-2-2-2--|--0-2-x-5-7-x-0-2-x-3-2-x-5-7~--5--|
       . . . . . . . . . . . . . . .


D||-----------------------------------|-----------------------------------|
A||-----------------------------------|-----------------------------------|
F||-----------------------------------|--------------------2-4---5-7~--\--|
C||--2--------------------------------|--0-2---5-7---0-2---2-4---5-7~--\--|
G||--2--------------------------------|--0-2---5-7---0-2---0-2---3-5~--\--|
C||--2-2-2-2-2-2-2-2-2-2-2-2-2-2-2-2--|--0-2-x-5-7-x-0-2-x-----x----------|
       . . . . . . . . . . . . . . .



Pre-Chorus
Guitar 1/2:
D||--------------------------------------------------------------------|
A||--------------------------------------------------------------------|
F||------4-----4-----4-----4-----4--------5-----5-----5-----5-----5----|
C||----4-----4-----4-----4-----4--------5-----5-----5-----5-----5------|
G||--2-----2-----2-----2-----2-----2--3-----3-----3-----3-----3-----3--|
C||--------------------------------------------------------------------|
     . .   . .   . .   . .   . .      . .   . .   . .   . .   . .


D||-------------------------|
A||-------------------------|
F||-------------------------|
C||--0-2---5-7---0-2---3-2--|
G||--0-2---5-7---0-2---3-2--|
C||--0-2-x-5-7-x-0-2-x-3-2--|



Bridge
Guitar 1:
D||------------------------------------------------|
A||--10/12-12-12-12\10-10/12-12-12-12-12-12-12-12--|
F||--9-/11-11-11-11\9--9-/11-11-11-11-11-11-11-11--|
C||------------------------------------------------|
G||------------------------------------------------|
C||------------------------------------------------|


D||------------------------------------------------|
A||--10/13-13-13-13\10-10/13-13-13-13-13-13-13-13--|
F||--9-/12-12-12-12\9--9-/12-12-12-12-12-12-12-12--|
C||------------------------------------------------|
G||------------------------------------------------|
C||------------------------------------------------|


D||------------------------------------------|
A||--10/12-12-12-12\10-10/12-12-12-12-12-12--|
F||--9-/11-11-11-11\9--9-/11-11-11-11-11-11--|
C||------------------------------------------|
G||------------------------------------------|
C||------------------------------------------|

                       T     T           T     T           T     T           T     T
D||-----------11h12h14-15-14-15-14p12p11-17-14-17-14p12p11-19-14-19-14p12p11-17-14-17-14p12p11--|
A||--12h13h15-----------------------------------------------------------------------------------|
F||---------------------------------------------------------------------------------------------|
C||---------------------------------------------------------------------------------------------|
G||---------------------------------------------------------------------------------------------|
C||---------------------------------------------------------------------------------------------|

     T
D||--15-14p12p11-------------------------------------|
A||--------------13-12-11----------------------------|
F||-----------------------12-11-9-11~b~-~--~--~--~\--|
C||--------------------------------------------------|
G||--------------------------------------------------|
C||--------------------------------------------------|


Guitar 2:
D||-------------------------------------------------------------------|
A||-------------------------------------------------------------------|
F||--4-----4-----4-----4-----4---4---5-----5-----5-----5-----5---5----|
C||--4-----4-----4-----4-----4---4---5-----5-----5-----5-----5---5----|
G||--2-2-2-2-2-2-2-2-2-2-2-2-2-2-2-2-3-3-3-3-3-3-3-3-3-3-3-3-3-3-3-3--|
C||-------------------------------------------------------------------|
       . .   . .   . .   . .   .   .   . .   . .   . .   . .   .   .

D||-----------------------------------------------------------------|
A||-----------------------------------------------------------------|
F||--4-----4-----4-----4-----4---4---5-----5-----5---7~-------------|
C||--4-----4-----4-----4-----4---4---5-----5-----5---7~-----//12\\--|
G||--2-2-2-2-2-2-2-2-2-2-2-2-2-2-2-2-3-3-3-3-3-3-3-3-5~-----//12\\--|
C||---------------------------------------------------------//12\\--|
       . .   . .   . .   . .   .   .   . .   . .   .



Dual Bridge
Guitar 1:
D||--15-141414-17-141414-19-141414-15-141414-17-141414-19-141414-15-14----14-----------|
A||--------------------------------------------------------------------17----15-17-14--|
F||------------------------------------------------------------------------------------|
C||------------------------------------------------------------------------------------| x4
G||------------------------------------------------------------------------------------|
C||------------------------------------------------------------------------------------|


Guitar 1 (Dub):
D||------------------------------------------------------------------------------------|
A||------------------------------------------------------------------------------------|
F||--16-151515-18-151515-19-151515-16-151515-18-151515-19-151515-16-15----15-----------|
C||--------------------------------------------------------------------17----16-17-14--| x4
G||------------------------------------------------------------------------------------|
C||------------------------------------------------------------------------------------|


Guitar 2:
D||------------------------------------------------------------|
A||------------------------------------------------------------|
F||------------------------------------------------------------|
C||--2-4-----4~---2-4---5~--4~---2-4-----4~---2-4---7~--5~--2--| x2
G||--2-4-----4~---2-4---5~--4~---2-4-----4~---2-4---7~--5~--2--|
C||--2-4-4-4-4~---2-4-4-5~--4~---2-4-4-4-4~---2-4-4-7~--5~--2--|
         . .          .              . .          .



Solo
Guitar 1:
D||----------7-4-----7-4-----7-4-----7-4-----7-4-----7-4-------------------|
A||--------------7-4-----7-4-----7-4-----7-4-----7-4-----7-4-7-4-----------|
F||--------------------------------------------------------------6-4-*6b~--|
C||--(//\\)----------------------------------------------------------------|
G||--(//\\)----------------------------------------------------------------|
C||--(//\\)----------------------------------------------------------------|


D||-------------------------------|------------------------------------|
A||-------------------------------|--*6b~------b~r~--------------------|
F||--pb8~r6--4--------------------|--------------------4---------------|
C||------------6-4----------------|----------------------6-4-----------|
G||----------------6-5-4-2--*4b~--|--------------------------6-5-4-2~--|
C||-------------------------------|------------------------------------|


Guitar 2:
D||------------------------------------------------------------|
A||------------------------------------------------------------|
F||------------------------------------------------------------|
C||--4-6-----6~---4-6---7~--6~---4-6-----6~---4-6---9~--7~--4--|
G||--4-6-----6~---4-6---7~--6~---4-6-----6~---4-6---9~--7~--4--|
C||--4-6-6-6-6~---4-6-6-7~--6~---4-6-6-6-6~---4-6-6-9~--7~--4--|
         . .          .              . .          .

D||---------------------------------|
A||---------------------------------|
F||---------------------------------|
C||--4-6-----6~---4-6---7~--6~---4--|
G||--4-6-----6~---4-6---7~--6~---4--|
C||--4-6-6-6-6~---4-6-6-7~--6~---4--|
         . .          .



Guitar 1/2:
D||--7/8-10-12-10-8---------------------------------------------|
A||-----------------10-12-13-12-10-9----------------------------|
F||----------------------------------7-9-11-9-7-5---------------|
C||-----------------------------------------------7-9-10-9-7-5--|
G||-------------------------------------------------------------|
C||-------------------------------------------------------------|


D||------------------------------------------------------|
A||------------------------------------------------------|
F||------------------------------------------------------|
C||----------------------2-4-2---------------------------|
G||--5-7-9-7-5-3-0-2-3-5-------5-3-2-------2-3-2---------|
C||----------------------------------2-3-5-------5-3-2~--|



Interlude
Guitar 1:
D||-------------------------------------------------------------------|
A||------0-----0-----3-----3-----------------0---------------3--------|
F||----0-----0-----0-----0-----0---0-----0-----0---0-----0-----0---0--|
C||--2-----4-----5-----4-----2---0-----4---------4-----4---4-----4----| x2
G||----------------------------------3-----3---------2----------------|
C||-------------------------------------------------------------------|


Guitar 2:
D||----------|
A||----------|
F||----------|
C||--//12\\--|
G||--//12\\--|
C||--//12\\--|



Chorus
Guitar 1/2:
D||-----------------------------------|------------------------------------|
A||-----------------------------------|------------------------------------|
F||-----------------------------------|------------------------------------|
C||--0-2---5-7---0-2---3-2------------|--0-2---5-7---0-2---/8---7---5---7--|
G||--0-2---5-7---0-2---3-2------------|--0-2---5-7---0-2---/8---7---5---7--|
C||--0-2-x-5-7-x-0-2-x-3-2-2-2-2-2-2--|--0-2-x-5-7-x-0-2-x-/8---7---5---7--|
                           . . . . .

D||-----------------------------------|-----------------------------------|
A||-----------------------------------|-----------------------------------|
F||-----------------------------------|--------------------2-4---5-7~--\--|
C||--0-2---5-7---0-2---3-2------------|--0-2---5-7---0-2---2-4---5-7~--\--|
G||--0-2---5-7---0-2---3-2------------|--0-2---5-7---0-2---0-2---3-5~--\--|
C||--0-2-x-5-7-x-0-2-x-3-2-2-2-2-2-2--|--0-2-x-5-7-x-0-2-x-----x----------|
                           . . . . .

D||-----------------------------------|------------------------------------|
A||-----------------------------------|------------------------------------|
F||-----------------------------------|------------------------------------|
C||--0-2---5-7---0-2---3-2------------|--0-2---5-7---0-2---/8---7---5---7--|
G||--0-2---5-7---0-2---3-2------------|--0-2---5-7---0-2---/8---7---5---7--|
C||--0-2-x-5-7-x-0-2-x-3-2-2-2-2-2-2--|--0-2-x-5-7-x-0-2-x-/8---7---5---7--|
                           . . . . .

D||-----------------------------------|------------------------------------|
A||-----------------------------------|------------------------------------|
F||-----------------------------------|--5~-------------7~-----------------|
C||--0-2---5-7---0-2---3-2------------|--5~-------------7~---------//12\\--|
G||--0-2---5-7---0-2---3-2------------|--3~-------------5~---------//12\\--|
C||--0-2-x-5-7-x-0-2-x-3-2-2-2-2-2-2--|----------------------------//12\\--|
                           . . . . .


Outro
Guitar 1/2:
D||------------------------------------|
A||------------------------------------|
F||--------------------------10-9~--\--|
C||--0-2---5-7---0-2---3-2---10-9~--\--|
G||--0-2---5-7---0-2---3-2---8--7~--\--|
C||--0-2-x-5-7-x-0-2-x-3-2-x-----------|





Tablature Legend
----------------
 h   - hammer-on
 p   - pull-off
 b   - bend
 r   - release bend
 *   - pinch harmonic
 '   - natural harmonic
 x   - mute note
 .   - palm mute
 /   - slide down
 \   - slide up
Tap to rate this tab
# A B C D E F G H I J K L M N O P Q R S T U V W X Y Z