Song name
# A B C D E F G H I J K L M N O P Q R S T U V W X Y Z

Drist - Erase Me tab

"Erase Me" by Drist

These tabs were given to me by Brian Damotta himself

Tuning: Bb, F, Bb, Eb, G, C

h-Hammer on
p-Pull off
()-Natural Harmonic
/-Slide up
\-Slide down
.-Palm mute


Intro:

|------------------------------------------------------|
|------------------------------------------------------|
|------------------------------------------------------|
|------------------------------------------------------|
|--0h2-2-2-0h2-2-2-2h3p2-0h5p3p02-2-2-02-2-2-232-0h5p3p|
|--0h2-2-2-0h2-2-2-2h3p2-0h5p3p02-2-2-02-2-2-232-0h5p3p|

|---------------------|
|---------------------|
|---------------------|
|3--3-33-3-3-/5--5-55-|
|3--3-33-3-3-/5--5-55-|
|3--3-33-3-3-/5--5-55-|

|------------------------------------------------------|
|------------------------------------------------------|
|------------------------------------------------------|
|------------------------------------------------------|
|--0h2-2-2-0h2-2-2-2h3p2-0h5p3p02-2-2-02-2-2-232-0h5p3p|
|--0h2-2-2-0h2-2-2-2h3p2-0h5p3p02-2-2-02-2-2-232-0h5p3p|

|---------------------|
|---------------------|
|---------------------|
|3--3-33-3-3-\2--2-22-|
|3--3-33-3-3-\2--2-22-|
|3--3-33-3-3-\2--2-22-|


Verse x2:

|------------------------------------------------------------|
|---------------(7)----------------(7)-----------------------|
|-----------------(7)----------------(5)----------------(7)--|
|---------------------------------------------------------(7)|
|22-2-0-0h2-2-2------22-2-0-0h2-2-2------22-2-0-0h2-2-2------|
|22-2-0-0h2-2-2------22-2-0-0h2-2-2------22-2-0-0h2-2-2------|

Let the last note ring
|---------------------|
|---------------------|
|---------------------|
|---------------------|
|5-5----0-------------|
|5-5-55-0-------------|
     ..


Chorus x2 (Strumming is probably off):


|--------------------|
|--------------------|
|--------------------|
|9-99/12---12--1212--|
|7-77/10---10--1010--|
|-----10---10--1010--|

|----------------|
|----------------|
|----------------|
|9-99/7---7--77--|
|7-77/5---5--55--|
|-----5---5--55--|

|--------------------|
|--------------------|
|--------------------|
|9-99/12---12--1212--|
|7-77/10---10--1010--|
|-----10---10--1010--|


Let the last note ring
|--------------------|
|--------------------|
|--12--11------------|
|--12--12---12-------|
|-----------12-------|
|00---0---0-12-------|


Here are the chords to the rhythm under the solo:

|------|
|------|
|--11--|
|--9---|
|--7---|
|------|

|------|
|------|
|--11--|
|--10--|
|--10--|
|--10--|

|------|
|------|
|--11--|
|---7--|
|--7---|
|--7---|

|------|
|------|
|--11--|
|--10--|
|--10--|
|--10--|

|------|
|------|
|--12--|
|--10--|
|--10--|
|--10--|

The ending to the solo (Those are 10s, 11s and 12s):

|--------------------------------------------|
|--------------------------------------------|
|11111111-111111--1111--12121212-121212--1212|
|10101010-101010--1010--10101010-101010--1010|
|10101010-101010--1010--10101010-101010--1010|
|10101010-101010--1010--10101010-101010--1010|

I Hope that helped slightly. If you have any questions, please email:
Harooncr@aol.com
Tap to rate this tab
 
# A B C D E F G H I J K L M N O P Q R S T U V W X Y Z