Song name
# A B C D E F G H I J K L M N O P Q R S T U V W X Y Z

Drist - Fallen tab

Fallen, by Drist

Tuning-Drop D


Intro:
|----------------|----------------|
|----------------|----------------|
|----------------|5-555-1010-10-10|
|----------------|3-333-8-88-88-88|
|30-0-030-0-03-33|3-333-8-88-88-88|
|30-0-030-0-03-33|3-333-8-88-88-88|


Verse:
|----------------|----------------|
|----------------|----------------|
|----------------|----------------|
|----------------|----------------|
|30-0-030-0-03050|60-0-030-0-03---|
|30-0-030-0-03050|60-0-030-0-03---|


Prechorus:
|----------------|----------------|
|----------------|----------------|
|----------------|5-555-1010-10-10|
|----------------|3-333-8-88-88-88|
|30-0-030-0-03-33|3-333-8-88-88-88|
|30-0-030-0-03-33|3-333-8-88-88-88|


Chorus:
|----------------|----------------|----------------|----------------|
|----------------|----------------|----------------|----------------|
|----------------|----------------|----------------|----------------|
|7777777777777777|7777777777777777|7777777777777777|5555555555555555|
|5555555555555555|5555555555555555|8888888888888888|3333333333333333|
|0000000000000000|5555555555555555|8888888888888888|----------------|


Solo:
|------------------|
|------------------|
|------------------|
|------------------|
|30-0-030-0-0305060|
|30-0-030-0-0305060|


Outro:

|----------------|----------------|----------------|----------------|
|----------------|----------------|----------------|----------------|
|------7---------|------10--------|------5---------|----------------|
|------7---------|------10--------|------5---------|0---------------|
|5--5------------|8--8------------|3--3------------|0---------------|
|5--5------------|8--8------------|3--3------------|0---------------|

The order in which it goes is:
Intro 4x
Verse 4x 
Prechorus 4x 
chorus 2x 
Verse 6x 
Prechorus 4x 
Chorus 4x 
Solo 24x 
Chorus 4x 
Outro 2x

Any questions? Email me at Harooncr@aol.com
Tap to rate this tab
 
# A B C D E F G H I J K L M N O P Q R S T U V W X Y Z