Guitaretab - guitar tabs
Song name
# A B C D E F G H I J K L M N O P Q R S T U V W X Y Z

Drist - Arterial Black tab

Arterial Black
DROP D
tabbed by Mr. Dr. Megna
mrdrmegna@aim.com


Guitar 1
Intro
E|------------------------------------------------|
B|------------------------------------------------|
G|------------------------------------------------|
D|-0-0-00000000-7-7-77777777-3-3-33333333-8-8--7-7|  x2
A|-0-0-00000000-7-7-77777777-3-3-33333333-8-8--7-7|
D|-0-0-00000000-7-7-77777777-3-3-33333333-8-8--7-7|

Guitar 2 comes in on second time
E|----------------------------------------|
B|---13b~------12b~-----11b~---\/11b~-10b~|
G|----------------------------------------|
D|----------------------------------------|
A|----------------------------------------|
D|----------------------------------------|

Guitar 1
Verse
E|--------------------------------------|
B|--------------------------------------|
G|--------------------------------------|
D|-0-0---0-0-7-7---7-7-3-3---3-3-8-8-7-7|  x4
A|-0-0---0-0-7-7---7-7-3-3---3-3-8-8-7-7|
D|-0-0---0-0-7-7---7-7-3-3---3-3-8-8-7-7|

Guitar 2 comes in after the 2nd time
E|--------------------------------------------|
B|--------------------------------------------|
G|------7----------9----------9-------8---7---|
D|----5---7------7---9------7---9--7----8---7-|    x2
A|-5----------7----------8--------------------|
D|--------------------------------------------|

Guitar 1
Chorus
E|-------------------------------------|
B|-------------------------------------|
G|-------------------------------------|
D|-3-3-3-3}--3---6-5-3-0---6-5-3-0-----|   x2
A|-3-3-3-3}--3---6-5-3-0---6-5-3-0-----|
D|-3-3-3-3}--3---6-5-3-0---6-5-3-0-----|

Guitar 1
Verse
E|------------------------------------------------|
B|------------------------------------------------|
G|------------------------------------------------|
D|-0-0-00000000-7-7-77777777-3-3-33333333-8-8--7-7|  x2
A|-0-0-00000000-7-7-77777777-3-3-33333333-8-8--7-7|
D|-0-0-00000000-7-7-77777777-3-3-33333333-8-8--7-7|

Guitar 2 second time
E|----------------------------------------|
B|---13}b------12}b-----11}b---\/11b~-10b~|
G|----------------------------------------|
D|----------------------------------------|
A|----------------------------------------|
D|----------------------------------------|

Guitar 1
Verse
E|--------------------------------------|
B|--------------------------------------|
G|--------------------------------------|
D|-0-0---0-0-7-7---7-7-3-3---3-3-8-8-7-7|  x4
A|-0-0---0-0-7-7---7-7-3-3---3-3-8-8-7-7|
D|-0-0---0-0-7-7---7-7-3-3---3-3-8-8-7-7|

Guitar 2 comes in the 3rd time guitar
E|-15-14-13-12--15-14-13-12--15-14-15/19-18-|
B|------------------------------------------|
G|------------------------------------------|
D|------------------------------------------|
A|------------------------------------------|
D|------------------------------------------|

Guitar 2 continued
E|-15-14-13-12--15-14-13-12--15-14---15-14h15p14h15p14h15p14p15~-|
B|---------------------------------------------------------------|
G|---------------------------------------------------------------|
D|---------------------------------------------------------------|
A|---------------------------------------------------------------|
D|---------------------------------------------------------------|

Guitar 1
Chorus
E|-------------------------------------|
B|-------------------------------------|
G|-------------------------------------|
D|-3-3-3-3}--3---6-5-3-0---6-5-3-0-----|
A|-3-3-3-3}--3---6-5-3-0---6-5-3-0-----|
D|-3-3-3-3}--3---6-5-3-0---6-5-3-0-----|

E|-------------------------------------|
B|-------------------------------------|
G|-------------------------------------|
D|-3-3-3-3}--3---6-5-3-0---6-5-3-0-0-0-|
A|-3-3-3-3}--3---6-5-3-0---6-5-3-0-0-0-|
D|-3-3-3-3}--3---6-5-3-0---6-5-3-0-0-0-|

E|-------------------------------------|
B|-6-5--3-0}---------------------------|
G|-6-5--3-0}---------------------------|
D|---------------6-5-3-0---6-5-3-0-----|
A|---------------6-5-3-0---6-5-3-0-----|
D|---------------6-5-3-0---6-5-3-0-----|

E|-------------------------------------|
B|-------------------------------------|
G|-------------------------------------|
D|-3-3-3-3}--3---6-5-3-0---6-5-3-0-----|
A|-3-3-3-3}--3---6-5-3-0---6-5-3-0-----|
D|-3-3-3-3}--3---6-5-3-0---6-5-3-0-----|

Guitar 2
Solo Pt. 1
E|-------------------------------------|
B|-------------------------------------|
G|-------------------------------------|
D|-------------------------------------|
A|-------------------------------------|
D|-t15p2p0h2p0-t15p0-t14p2p0h2p0-t14p0-|

E|-------------------------------------|
B|-------------------------------------|
G|-------------------------------------|
D|-------------------------------------|
A|-------------------------------------|
D|-t17p2p0h2p0-t17p0-t15p2p0h2p0-t15p0-|
[ Tab from: http://www.guitaretab.com/d/drist/82104.html ]
E|-------------------------------------------------------|
B|-------------------------------------------------------|
G|-------------------------------------------------------|
D|-------------------------------------------------------|
A|-t15p2p0h2p0-t15p0-t14p2p0h2p0-t14p0-t17p2p0h2p0-t17p0-|
D|-------------------------------------------------------|

E|----------------------------------------------------------|
B|------------------t18p1p0h1-t17p1p0h1-t20p1p0h1-t18p1p0h1-|
G|----------------------------------------------------------|
D|----------------------------------------------------------|
A|-t15p2p0h2p0-t15p0----------------------------------------|
D|----------------------------------------------------------|




E|-------------------------------------------------------------|
B|-t17p1p0h1-t18p1p0h1-t20p1p0h1-t18p1p0h1-t17p1p0h1-t18p1p0h1-|
G|-------------------------------------------------------------|
D|-------------------------------------------------------------|
A|-------------------------------------------------------------|
D|-------------------------------------------------------------|

E|-t17p1p0h1-t15p1p0h1-t17p1p0h1-t18p1p0h1-t20p1p0h1-|
B|---------------------------------------------------|
G|---------------------------------------------------|
D|---------------------------------------------------|
A|---------------------------------------------------|
D|---------------------------------------------------|

Guitar 1
Solo Pt. 2
E|-----------14-17-14---14------------------------------------------------|
B|-22b-22b-22---------17--(17)-17b-14-17-14---14---------14-17-14---14----|
G|------------------------------------------16---16b--16---------16---16b-|
D|------------------------------------------------------------------------|
A|------------------------------------------------------------------------|
D|------------------------------------------------------------------------|

E|-------------------------------------|
B|-------------------------------------|
G|-------------------------------------|
D|-------------------------------------|
A|-------------(slow slide)------------|
D|-0--/--/--/--/--/--/--/--/--/--/--20-|

Guitar 1
Solo Pt. 3
E|----------------------------------------|
B|----------------------------------------|
G|-7h8h10h12p10p8p7--7h8h10h12p10p8p7-7-6-|
D|----------------------------------------|_______________
A|----------------------------------------|               |
D|----------------------------------------|               |
                                                          |
E|------------------------------------------|             x2
B|------------------------------------------|             |
G|-6h7h8h10h12p10p8p7--7h8h10h12p10p8-7-7/8-|             |
D|------------------------------------------|_____________|
A|------------------------------------------|
D|------------------------------------------|

Guitar 2 comes in second time
E|----------------------------------------|
B|----------------------------------------|
G|-7h8h10h12p10p8p7--7h8h10h12p10p8p7-7-6-|
D|----------------------------------------|
A|----------------------------------------|
D|----------------------------------------|

E|--------------------------------------|
B|--------------------------------------|
G|-6h7h8h10h12p10p8p7--7h8h10h12p10p8-7-|
D|--------------------------------------|
A|--------------------------------------|
D|--------------------------------------|

E|15p12------------------|
B|-----15p12-------------|
G|----------14p12--------|
D|---------------14p12---|
A|-----------------------|
D|-----------------------|

Guitar 1
Chorus
E|-------------------------------------|
B|-------------------------------------|
G|-------------------------------------|
D|-3-3-3-3}--3---6-7-3-0---6-7-3-0-----|
A|-3-3-3-3}--3---6-7-3-0---6-7-3-0-----|
D|-3-3-3-3}--3---6-7-3-0---6-7-3-0-----|

E|-------------------------------------|
B|-------------------------------------|
G|-------------------------------------|
D|-3-3-3-3}--3---6-7-3-0---6-7-3-0-0-0-|
A|-3-3-3-3}--3---6-7-3-0---6-7-3-0-0-0-|
D|-3-3-3-3}--3---6-7-3-0---6-7-3-0-0-0-|

E|-------------------------------------|
B|-------------------------------------|
G|-------------------------------------|
D|-3-3-3-3}--3---6-7-3-0---6-7-3-0-----|
A|-3-3-3-3}--3---6-7-3-0---6-7-3-0-----|
D|-3-3-3-3}--3---6-7-3-0---6-7-3-0-----|

E|-------------------------------------|
B|-------------------------------------|
G|-------------------------------------|
D|-3-3-3-3}--3---6-7-3-0---6-7-3-0-----|
A|-3-3-3-3}--3---6-7-3-0---6-7-3-0-----|
D|-3-3-3-3}--3---6-7-3-0---6-7-3-0-----|

Guitar 1 and 2
Outro
E|---------------------------------------------|
B|---------------------------------------------|
G|---------------------------------------------|
D|---6--5--3--6--5--3--6-6-5-5-3-3-2--0--------|
A|---6--5--3-6--5--3--6-6-5-5-3-3-2--0--------|
D|---6--5--3-6--5--3-6-6-5-5-3-3-2--0--------|



t_tap
h_hammer-on
p_pull-off
b_bend
}_ring
~_vibrato
(x)_ghost note
Related for Arterial Black tab