Song name
# A B C D E F G H I J K L M N O P Q R S T U V W X Y Z

Drop Dead Gorgeous - Fame tab

Drop Dead, Gorgeous
"Fame"
The Hot N' Heavy

This song is in dropped C.  If you have a microkorg, you can play the opening
keyboard riff!  Just go to A.22 and have some fun!

D----------------------------------------|
A----------------------------------------|
F-----------7777-6666-22222222-3333-2222-|
C--00000000-xxxx-xxxx-xxxxxxxx-3333-2222-|
G--00000000-5555-4444-00000000-1111-0000-|
C--00000000------------------------------|

Or it can be played this way!
D-----------------------------------------|
A-----------------------------------------|
F-----------7777-6666---------------------|
C--00000000-xxxx-xxxx--77777777-8888-7777-|
G--00000000-5555-4444--77777777-8888-7777-|
C--00000000------------77777777-8888-7777-|

Lead over opening riff
D-11111111111155555-6666-1010101010101010-1717171713131313-|
A----------------------------------------------------------|
F----------------------------------------------------------|
C----------------------------------------------------------|
G----------------------------------------------------------|
C----------------------------------------------------------|

D-----------------------|
A-----------------------|
F-----------------------|
C-0--0-0--0---8888-7777-|
G-0--0-0--0---8888-7777-|
C-0--0-0--0---8888-7777-|

D-------------------|
A-------------------|
F-------------------|
C-0---08-7--0----/7-|
G-0---08-7--0----/7-|
C-0---08-7--0----/7-|

This might be wrong, but hell, I tried
D---15---------------------15----15-----------------15---|
A-------14-------------14-----14----14-----------14---14-|
F-----------12-------------------------12----------------|
C--------------12-11----------------------12-11----------|
G--------------------------------------------------------|
C--------------------------------------------------------|

D----
A----
F----
C---0
G---0
C---0

D----------------------------------------|
A----------------------------------------|
F-----------7777-6666-22222222-3333-2222-|
C--00000000-xxxx-xxxx-xxxxxxxx-3333-2222-|
G--00000000-5555-4444-00000000-1111-0000-|
C--00000000------------------------------|

Or it can be played this way!
D-----------------------------------------|
A-----------------------------------------|
F-----------7777-6666---------------------|
C--00000000-xxxx-xxxx--77777777-8888-7777-|
G--00000000-5555-4444--77777777-8888-7777-|
C--00000000------------77777777-8888-7777-|

Lead over opening riff
D-11111111111155555-6666-1010101010101010-1717171713131313-|
A----------------------------------------------------------|
F----------------------------------------------------------|
C----------------------------------------------------------|
G----------------------------------------------------------|
C----------------------------------------------------------|


D-----------------------|
A-----------------------|
F-----------------------|
C-0--0-0--0--0--0-0---0-|
G-0--0-0--0--0--0-0---0-|
C-0--0-0--0--0--0-0---0-|


D--------------------------------------------------|
A--------------------------------------------------|
F--------------------------------------------------|
C-0000---0000-0000--0000---0000---0000-0000---0000-|
G-0000---0000-0000--0000---0000---0000-0000---0000-|
C-0000---0000-0000--0000---0000---0000-0000---0000-|

Now let the ending chords ring out until the next pattern happens
D--------------------------------------------------|
A--------------------------------------------------|
F--------------------------------------------------|
C-0000---0000-0000--0000---0000---0000-0000---0000-|
G-0000---0000-0000--0000---0000---0000-0000---0000-|
C-0000---0000-0000--0000---0000---0000-0000---0000-|
pm________________________________________________

D------|
A------|
F------|
C---0~
G---0~
C---0~

D-------------------------------------|
A-------------------------------------|
F------------7-6----------------------|
C-0-00000000-x-x-7--77777777-8-7-7777-|
G-0-00000000-5-4-7--77777777-8-7-7777-|
C-0-00000000-----7--77777777-8-7-7777-|
  pm________       pm_______    pm___

D-------------------------------------|
A-------------------------------------|
F------------7-6----------------------|
C-0-00000000-x-x-7--77777777-8-7-7777-|
G-0-00000000-5-4-7--77777777-8-7-7777-|
C-0-00000000-----7--77777777-8-7-7777-|
  pm________       pm_______    pm___


D----------------------------|
A----------------------------|
F------------7-6-14----------|
C-0-00000000-x-x--x-77777777-|
G-0-00000000-5-4-12-77777777-|
C-0-00000000--------77777777-|
   pm_______       pm_______

D----------------------------|
A----------------------------|
F------------7-6-14----------|
C-0-00000000-x-x--x-77777777-|
G-0-00000000-5-4-12-77777777-|
C-0-00000000--------77777777-|
   pm_______       pm_______

Ring Out
D---
A---
F---
C--0
G--0
C--0
Tap to rate this tab
# A B C D E F G H I J K L M N O P Q R S T U V W X Y Z