Song name
# A B C D E F G H I J K L M N O P Q R S T U V W X Y Z

Drop Dead Gorgeous - Marietta tab

Help us improve GuitareTab! Take a short survey!
-------------------------------------------------------------------------------
			     Marietta - Drop Dead, Gorgeous
-------------------------------------------------------------------------------
Tabbed by:DropDead1
Email:daniel_wherestheboat00@yahoo.com

Tuning:Drop C

00:09-00:32
Both Guitars
D|--------------------------------------------|
A|--------------------------------------------|
F|--------------14--14--14-14-14--14-14-14----|
C|--------------------------------------------|
G|-0-0-0--0-0-0-12--12--12-12-12--12-12-12----|
C|-0-0-0--0-0-0-------------------------------|
   * * *  * * *                               (8Xs)
D|--------------------------------------------|
A|--------------------------------------------|
F|--------------14--14--15-15-15--12-12-12----|
C|--------------------------------------------|
G|-0-0-0--0-0-0-12--12--13-13-13--10-10-10----|
C|-0-0-0--0-0-0-------------------------------|
   * * *  * * *
00:32-00:44
Guitar 1
D|--------------|
A|--------------|
F|--------------|
C|--------------|(4Xs)
G|-0-0-0--0-0-0-|
C|-0-0-0--0-0-0-|
   * * *  * * *
00:32-00:44
Guitar 2
D|--------------|
A|-11-----------|
F|-14-----------|
C|--------------|(32Xs)
G|--------------|
C|--------------|

00:44-01:08
Both Guitars
D|---------------------------------------------------------------------|
A|---------------------------------------------------------------------|
F|-------------------------------------------------109--109--9/12------|
C|---------------------------------------------------------------------|
G|-0-0-0--0-0-0---0--0--0---0-0-0--0-0-0---0--0--0--87---87--7/10------|
C|-0-0-0--0-0-0---0--0--0---0-0-0--0-0-0---0--0--0---------------------|
   * * *  * * *   *  *  *   * * *  * * *   *  *  *

D|----------------------------------------------|
A|----------------------------------------------|
F|------------------------109--109--9/12--------|
C|--------------------------------------------7-|Xs)
G|-0-0-0--0-0-0---0--0--0--87---87--7/10--------|
C|-0-0-0--0-0-0---0--0--0-----------------------|
   * * *  * * *   *  *  *

00:58-01:08
Guitar 2
D|---------------------------------------------|
A|---------------------------------------------|
F|------------------------1412--1412--12/15----|
C|---------------------------------------------|(4Xs)
G|-0-0-0--0-0-0---0--0--0-1210--1210--10/13----|
C|-0-0-0--0-0-0---0--0--0----------------------|
   * * *  * * *   *  *  *
01:09-01:12
Both Guitars
D|-------------------------------------------|
A|-------------------------------------------|
F|-------------------------------------------|
C|-------------------------------------------|
G|-0---0-0-0--0-0-0---0-0--0--0---0----------|
C|-0---0-0-0--0-0-0---0-0--0--0---0----------|
   *   * * *  * * *   * *  *  *   *
01:22-01:42
Both Guitars
D|-------------------------------------------|
A|-------------------------------------------|
F|-------------------------------------------|
C|-------------------------------------------|
G|-0-0--0-0----------------------------------|
C|-0-0--0-0----------------------------------|
   * *  * *
D|-------------------------------------------|
A|-------------------------------------------|
F|-------------------------------------------|
C|-------------------------------------------|(7Xs)
G|-0-0-0-0-0-0-0-0--0-0-0-0--0-0-0-0---------|
C|-0-0-0-0-0-0-0-0--0-0-0-0--0-0-0-0---------|
   * * * * * * * *  * * * *  * * * *
D|-------------------------------------------|
A|-------------------------------------------|
F|-------------------------------------------|
C|-------------------------------------------|
G|-0-0-0-0-0-0-0-0---------------------------|
C|-0-0-0-0-0-0-0-0---------------------------|
   * * * * * * * *
Break

01:49-02:13
Both Guitars
D|-------------------------------------------|
A|-------------------------------------------|
F|-------------------------------------------|
C|-------------------------------------------|(2Xs)
G|-0-0-0-0-0-0-0-0---0-0-0-0--0-0-0-0--------|
C|-0-0-0-0-0-0-0-0---0-0-0-0--0-0-0-0--------|
   * * * * * * * *   * * * *  * * * *
D|-------------------------------------------|
A|-------------------------------------------|
F|-------------------------------------------|
C|-------------------------------------------|
G|-1-1-1-1-1-1-1-1---1-1-1--1-1-1------------|
C|-1-1-1-1-1-1-1-1---1-1-1--1-1-1------------|
   * * * * * * * *   * * *  * * *
D|-------------------------------------------|
A|-------------------------------------------|
F|-------------------------------------------|
C|-------------------------------------------|(3Xs)
G|-0-0-0-0-0-0-0-0---0-0-0-0--0-0-0-0--------|
C|-0-0-0-0-0-0-0-0---0-0-0-0--0-0-0-0--------|
   * * * * * * * *   * * * *  * * * *
D|-------------------------------------------|
A|-------------------------------------------|
F|-------------------------------------------|
C|-------------------------------------------|
G|-1-1-1-1-1-1-1-1---1-1-1-1--1-1-1-1--------|
C|-1-1-1-1-1-1-1-1---1-1-1-1--1-1-1-1--------|
   * * * * * * * *   * * * *  * * * *
D|-------------------------------------------|
A|-------------------------------------------|
F|-------------------------------------------|
C|-------------------------------------------|
G|-0-0-0-0-0-0-0-0---0-0-0-0--0-0-0-0--------|
C|-0-0-0-0-0-0-0-0---0-0-0-0--0-0-0-0--------|
   * * * * * * * *   * * * *  * * * *
Related for Marietta tab