Song name
# A B C D E F G H I J K L M N O P Q R S T U V W X Y Z

Dropkick Murphys - State Of Massachusetts tab

----------------------------------------------------------------------------
                  State of Massachusetts-Dropkick Murphys
----------------------------------------------------------------------------
Album:The Meanest of Times
Tuning:Standard

Tabbed by:WARNINGnimrod12
Email:WARNINGnimrod182@aim.com


       This is intro for "state of massachusetts". I'm pretty sure it's
      played on the banjo, but this is what it would sound like on guitar.


   E|--------------------------------------------------|
   B|---3-3-3--3-3-------------------------------------|
   G|--------------2-0--------0-2----------------------|
   D|------------------3--3-3--------------------------|
   A|-----------------------------3--3-3-0-3-3/5-5-5---|
   E|--------------------------------------------------|


   E|---------------------------------------------------|
   B|-----3-3-3-3---------------------------------------|
   G|---2---------2-0--------0-2------------------------|
   D|-----------------3--3-3----------------------------|
   A|----------------------------3--3-3-0-3-3/5-5-5-5---|
   E|---------------------------------------------------|


   E|-------------------------------------------------|
   B|-----3-3-3-3-----6--6-6-5-3-1--1-1---1-1/3-3-3---|
   G|---2---------2-0-------------------2-------------|
   D|-------------------------------------------------|
   A|-------------------------------------------------|
   E|-------------------------------------------------|

                            OR

   E|-----------------1--1-1-0------------------------|
   B|-----3-3-3-3--------------3-1--1-1---1-1/3-3-3---|
   G|---2---------2-0-------------------2-------------|
   D|-------------------------------------------------|
   A|-------------------------------------------------|
   E|-------------------------------------------------|
     
      Ok, here's the really fast part, now I know it's not perfect, but
    it's pretty close.

   E|-----------------------------------------------|
   B|-----------------------------------------------|
   G|-----7-----9-----10-----14-----12-----10-------|
   D|---0---0-0---0-0----0-0----0-0----0-0----0-0---|
   A|-----------------------------------------------|
   E|-----------------------------------------------|

   
   E|-----------------------------------------|
   B|-----------------------------------------|
   G|-----------------------------------------|
   D|---7-7-7-7-7-7-7-7-7-7-7-7-7-------(5)---|
   A|---7-7-7-7-7-7-7-7-7-7-7-7-7--5--3--3----|
   E|---5-5-5-5-5-5-5-5-5-5-5-5-5--3--1-------|

   And then it does the same banjo type thing as it did in the beginning.
  Well, except for the chords which are simply D,F,C, and D, played in 
  that order 4 times.
Tap to rate this tab
# A B C D E F G H I J K L M N O P Q R S T U V W X Y Z