Song name
# A B C D E F G H I J K L M N O P Q R S T U V W X Y Z

Dust To Dust - Barely Breathing tab

guitar 1  verse
e(--------------------)
b(--------------------)
g(--------------------)
d(----4---5---55-44---)
a(--2---2---2-------5-)
D(--------------------)

guitar 2  verse/chorus
e(---------------------)
b(---------------------)
g(---------------------)
d(--99-77-55-77-101010-)
a(--99-77-55-77-101010-)
D(--99-77-55-77-101010-)

pre-chorus
e(---------------------)
b(----5---6---66-55----)
g(--2---2---2-------55-)
d(---------------------)
a(---------------------)
D(---------------------)
               breakdown

     x2                   x4                     x4             x4
e(--17-13-11--------)(------------------)(------------------)(--11/14-)
b(------------10/11-)(------------------)(------------------)(--------)
g(------------------)(------------------)(------------------)(--------)
d(------------------)(--99-91010-99-777-)(--99-91010-99-777-)(--------)
a(------------------)(--99-91010-99-777-)(--99-91010-99-777-)(--------)
D(------------------)(--99-91010-99-777-)(--99-91010-99-777-)(--------)
                                          pm.. . . . .. ... 
Tap to rate this tab
 
# A B C D E F G H I J K L M N O P Q R S T U V W X Y Z