Song name
# A B C D E F G H I J K L M N O P Q R S T U V W X Y Z

Dust To Dust - Dead Inside tab

intro
eb(------------------)(------------------)
bb(------------------)(------------------)
gb(------------------)(------------------)
db(--6-5-----4-5-----)(--6-5-0---6-5-0-2-)
ab(------4-4-----4-7-)(--6-5-0---6-5-0-2-)
Db(------------------)(--6-5-0---6-5-0-2-)

this is the same lead repeated thought-out the whole song
eb(--12-11-12-12-14-11-12/7-9/1-1-)
bb(-------------------------------)
gb(-------------------------------)
db(-------------------------------)
ab(-------------------------------)
Db(-------------------------------)

verse
eb(-----------------------------------)
bb(-----------------------------------)
gb(-----------------------------------)
db(--66666666555555550000000000000000-)
ab(--66666666555555550000000000000000-)
Db(--66666666555555550000000000000000-)
   pm................................

verse continued
eb(-----------------------------------)
bb(-----------------------------------)
gb(-----------------------------------)
db(--66666666555555550000000022222222-)
ab(--66666666555555550000000022222222-)
Db(--66666666555555550000000022222222-)
   pm................................

chorus
eb(-----------------------------------------------------------------)
bb(-----------------------------------------------------------------)
gb(--1111-11111111-------------------------1111-11111111-11-10-10-9-)
db(--1111-11111111-22-2222-00-0000-00-0000-1111-11111111-11-10-10-9-)
ab(---9-9--9-9-9-9-22-2222-00-0000-00-0000--9-9--9-9-9-9--9--8--8-7-)
Db(----------------22-2222-00-0000-00-0000--------------------------)

bridge
eb(------------------------------------------------------------)
bb(------------------------------------------------------------)
gb(----------------8/9-9/8-8/9-9/8-8/6-8/10-10/11-11-11-11-----)
db(--00000000------8/9-9/8-8/9-9/8-8/6-8/10-10/11-11-11-11-4/6-)
ab(--00000000------6/7-7/6-6/7-7/6-6/4-6/8---8/9---9--9--9-4-6-)
Db(--00000000-14/6-----------------------------------------4-6-)
   pm........
Tap to rate this tab
 
# A B C D E F G H I J K L M N O P Q R S T U V W X Y Z