Song name
# A B C D E F G H I J K L M N O P Q R S T U V W X Y Z

Dwarves - How Its Done tab

Verse 1                            x2
E------------------------------------|---------------------------------|
B------------------------------------|---------------------------------|
G-4----4----4----4--------------4----|-2----9----11---11---12----14----|
D-4----4----4----4----2----4----4----|-2----9----11---11---12----14----|
A-2----2----2----2----2----4----2----|-0----7----9----9----10----12----|
E---------------------0----2---------|---------------------------------|
                                     "well there's a gang of motherfuckers"
Verse 2
E--2------------------------|
B--3------------------------|
G--2----4--------------7----|
D--0----4----5----7----7----|
A-------2----5----7----5----|
E------------3----5---------|

Surf-Solo
E-----------------------------------------------------------------|
B-----------------------------------------------------------------|
G-----------------------------------------------------------------|
D-----------------------------------------------------------------|
A-----------------------------------------------------------------|
E-5/7/888888/777777/555555/333333/555555/000000/10*9*8*7*6*5*4*3*-|
                                                **Palmute and slide**
(Solo Continued)
E-6-6-6-6-6-6-6-6-6-6-6-6-6-6-6-6---------------------|
B-6-6-6-6-6-6-6-6-6-6-6-6-6-6-6-6-8-10-11-12-13(hold)-|
G-----------------------------------------------------|
D-----------------------------------------------------|
A-----------------------------------------------------|
E-----------------------------------------------------|

Verse 3
E-----------------------------------------|
B-----------------------------------------|
G-10---10-------------10---10---10--------|
D-10---10---8----10---10---10---10---8----|
A-8----8----8----10---8----8----8----8----|
E-----------6----8-------------------6----|

Ending
E-----------------------------|
B-13-13b-13b-13b-11b----------|
G---------------------13b-10--|
D-----------------------------|
A-----------------------------|
E-----------------------------|


PLEASE NOTE: For Verses play each note 8-times or just listen for the change

Verse 3 the lead guitar just plays a trill from the held 13th fret on the b string and 
it at parts so it'll look something like this:

E----------------------|
B-13-15-13-15-13-15-13-|
G----------------------|
Some parts for the 3rd verse you hold the 13th fret too
Tap to rate this tab
# A B C D E F G H I J K L M N O P Q R S T U V W X Y Z