Guitaretab - guitar tabs
Song name
# A B C D E F G H I J K L M N O P Q R S T U V W X Y Z

Eagles - New Kid In Town Acoustic tab

Video HERE --> http://www.youtube.com/watch?v=PZcHWBQXJpI

Eagles  New Kid in Town.  Acoustic                   Arrangement:  Baddguitar

E | E | F#m B | F#m B | A | B | E | E |

INTRO:

|---0-2-|-0---0-----0--|-0-0--0-0----|-2-2--2-2----|-2-2--2-2----|---------------12--|
|-0-----|-0---0-----0--|-0-0--0-0----|-2-4--2-4----|-2-4--2-2----|---------------12--|
|-------|-1---1-----1--|-1-1--1-1----|-2-2--2-2----|-2-2--2-4-14-|-14--11-11-9-9-----|
|-------|-2---2-----2--|-4-2--4-2----|-4-4--4-4----|-4-4--4-4-14-|-14--11-11-9-9-----|
|-------|-2---2-----2--|-2-2--2-2----|-2-2--2-2----|-2-2--2-2----|-------------------|
|-------|-0---0----(0)-|-0-0--0-0----|-2-2--2-2----|-2-2--2-2----|-------------------|


|-12-9-9-7-7-5-5---|-0----12-11-11-11--9--9--9-7--0--|
|-12-9-9-7-7-5-5-7-|-0-12----12-12-12-10-10-10-9--0--|
|------------------|---------13-13-13-11-11-11-9--1--|
|------------------|------------------------------2--|
|------------------|------------------------------2--|
|------------------|------------------------------0--|

Verse 1:
	E		     | E		 | F#m7 B7 | F#m7 B7 |
	There's talk on the street, it sounds so familiar;
	Asus2     | B7			 | E	    | E |
	great expectations, ev'rybody's watchin' you.

|------------------0---|
|--------4-4-4--2--0---|
|--------4-4-4--2--1---|
|-2-4-2------------2---|
|-2-4-2------------2---|
|------------------0---|

	E          | E                 | F#m  B  | F#m7 B |
	People you meet they all seem to know you,
	Asus2      | B7                             | E            | Absus4 Ab7 |
	even your old friends treat you like you're somethin' new.

                       E                            Ab
Pre-Chorus Riff:|---------0--------0---------4---4------|
        |-------0--------0---------4-----4--------------|
        |-----1--------2---------6-------5--------------|
        |---2--------4---------6---------6--------------|
        |-----------------------------------------------|
        |-----------------------------------------------|
Chorus:
	C#m         | F#  |
	Johnny come lately,
	C#m           | F# |
	the new kid in town.
	C#m	 | F#      |
	Ev'rybody loves you,
	Asus2              | B7 |
	so don't let them down.

Verse 2:
	E (hold)      | E              | F#m     B7   | F#m B7 |
	You look in her eyes, the music begins to play,
	Asus2     | B7                 | E   | E |
	hopeless romantics, here we go again.

|---4-4-4--------------------------------|
|-----------7-7-7---5-5-5---4---2---0----|
|---4-4-4--------------------------------|
|-----------7-7-7---6-6-6---4---2---0----|
|----------------------------------------|
|----------------------------------------|


	E           | E			   | F#m   B  | F#m7 B |
	But after a while you're lookin' the other way,
		   Asus2  | B7		    | E   | Absus4 Ab7 |
	it's those restless hearts that never mend.




[ Tab from: http://www.guitaretab.com/e/eagles/180731.html ]
Chorus:
	Johnny come lately,				C#m    F#
	the new kid in town.			C#m    F#
	Will she still love you ,			C#m    F#
	when you're not around?			A      B7

Bridge:

  E            B7   Asus2               B7               E      A  E/G#  F#m  E         B
|-0--0-0-0-4---2-||-0-0-0-------------0----------------0-4-----/9-7----5-4-5--4---2-0---2-----|
|-0--0-0-0-5---4-||-------2-0-2---0-2---2-0--------0-2----------------------------------4-----|
|-1--1/4/9-4---2-||------------------------2--------------------------------------------4-----|
|-2--2/6/9-x---4-||---------------------------4-----------------------------------------4-----|
|-2------------2-||---------------------------------------------------------------------2-----|
|-0--------------||---------------------------------------------------------------------------|

B7              | B7                 | E       | E |
There's so many things you should have told her,
						|---5--4--7--5--4--2----|
						|---5--5--7--5--5--4----|
						|---6--4--8--6--4--4----|
						|------------------4----|
						|-----------------------|
						|-----------------------|
	B7             | B7		      | C#m     |
	but night after night you're willing to hold her,
	     B    F#7 | Am7        | C    D  |
	just hold her, tears on your shoulder.

Verse 3:
	G                 | G                     | Am7  D  | Am7 D |
	There's talk on the street, it's there to remind you.
	C            | D           | G        | G |
	Doesn't really matter which side you're on.

|--3--2--0--0-----------------3---|
|--0-----------3-----1--0-----3---|
|--0--------------------------0---|
|--0--------------0--------0--0---|
|--2--------------------------2---|
|--3--------------------------3---|

	G	      | G			| Am7  D  | C  D |
	You're walkin' away and they're talkin' behind you,
		  C                   | D                 | G   | B7 |
	they will never forget you 'til somebody new comes along.

|---3/5\3---------------------2--------0---------------|
|---3/5\3--1/3\1------------0----------3----------2----|
|----------2/4\2--0-------2------------0--------2------|
|--------------------2--1--------------0------2--------|
|--------------------------------------2----0----------|
|-------------------------------3-2-0--0---------------|

	Em7		 | A    |
	Where've you been lately?
	Em7		    | A  |
	There's a new kid in town.
	Em7	 | A			|
	Ev'rybody loves him (don't they?)
	Am7	       | B7		     | E    | G#m7 | A   Asus2|
	Now he's holdin' her and you're still around.            Oh my my

Outro:
	B7		   | E   | G#m7 | A   Asus2||
	There's a new kid in town,
	B7		      | E   | G#m7 | A | Am7 | E |
	just another new kid in town.
	E			    | C#m	     | C#m | E |
	Ev'rybody's talkin' 'bout the new kid in town.
	E			    | C#m	     | C#m |
	Ev'rybody's talkin' 'bout the new kid in town.
		  E		  | E			   |
	There's a new kid in town, (I don't want to hear it)
		  C#m		  | C#m			   |
	There's a new kid in town, (I don't want to hear it)
Related for New Kid In Town Acoustic tab