Song name
# A B C D E F G H I J K L M N O P Q R S T U V W X Y Z

Easyworld - Demons tab

Demons

riff 1

e-------------17----------14----------17----------|
B-14----15----------17-------15----15-------15----|
G----14----14----14----14-------14-------14----14-|
D-------------------------------------------------|
A-------------------------------------------------|
E-------------------------------------------------|

riff 2

e------------|
B------------|
G-14b15~~~~~-|
D------------|
A------------|
E------------|

riff 3

e---------------|
B---------------|
G-2-4-6-2-7-7-6-|
D-2-----2-7-7---|
A-0-2-4-0-5-5-4-|
E---------------|

riff 4

e-------|
B-------|
G-4-6-7-|
D-------|
A-2-4-5-|
E-------|

riff 5

e-----------------|
B-----------------|
G-9-9-7-6-7-6-4-2-|
D---------------2-|
A-7-7-5-4-5-4-2-0-|
E-----------------|


Intro

Riff 1 x2

Riff 2

Riff 3 x2


Verse 1

A                                               D
this is just a call to let you know
A                                               D
there's nothing on these shiny videos
A                                               D
and throw away your teenage magazines
riff 4
they sap away what little is remaining of your self esteem...you know

here's a day to last for a while
a run toward the guns and you're out in style
here's your golden opportunity
to take these things that scare the shit out of you and
put them all on me...you know


Chorus

riff 1
give me all your demons
they don't scare me now

riff 3

riff 3
give me all your demons
they don't scare me now

riff 3


Verse 2

(same as verse 1)

you waste your days away on things so small
these concerns are no concerns at all
the demons gather round to wreck your day
just let me show you this fear for what it really is and see
them fall away...and it's over


Repeat Chorus

riff 5
they donít scare me now
riff 5
they donít scare me now


Solo

e--------------------------------------------------------------|
B-----------------------17----------10----9-----7----5---3-----|
G-6-7-9-6-7-7-6-7-14-16-19b21r19-19-12b14-11b13-9b11-7b9-5b7-7-|
D------------------------------------------------------------7-|
A-4-5-7-4-5-5-4-5-12-14--------------------------------------5-|
E--------------------------------------------------------------|

e-------------------------------|
B-10----12----14----14----15----|
G-12b14-14b16-16b18-16b18-17b19-|
D-------------------------------|
A-------------------------------|
E-------------------------------|


Outro

riff 3 over they donít scares

End on riff 1 x2
Tap to rate this tab
# A B C D E F G H I J K L M N O P Q R S T U V W X Y Z