Song name
# A B C D E F G H I J K L M N O P Q R S T U V W X Y Z

Eiffel 65 - Im Blue tab

Main parts of the song.
Got it from this guy: http://www.youtube.com/watch?v=9UN2WtsDLxg

Enjoy!:)

Chords - G5-F5-A#5-C5

Rythm guitar:

e|---------------------------------------------------------------------------|
B|---------------------------------------------------------------------------|
G|---------------------3-3-x-3/-5-5-x-5--------------------------------------|
D|----5-5-x-5/-3-3-x-3-3-3-x-3/-5-5-x-5--------------------------------------|
A|----5-5-x-5/-3-3-x-3-1-1-x-1/-3-3-x-3--------------------------------------|
E|----3-3-x-3/-1-1-x-1-------------------------------------------------------|


Main riff:

e|---------------------------------------------------------------------------|
B|---------------------------------------------------------------------------|
G|------------------------------------7--8--8--7-----------------------------|
D|----8--------8--10----7--8-------8--------------10-------------------------|
A|----------10-------8----------10-------------------------------------------|
E|------10-------------------------------------------------------------------|


End of main riff:

e|---------------------------------------------------------------------------|
B|---------------------------------------------------------------------------|
G|---------------------------------------------------------------------------|
D|----8--------8--7----------------------------------------------------------|
A|----------10---------8--10-------------------------------------------------|
E|------10----------8--------------------------------------------------------|

Tap to rate this tab
# A B C D E F G H I J K L M N O P Q R S T U V W X Y Z