Song name
# A B C D E F G H I J K L M N O P Q R S T U V W X Y Z

Elemeno P - Pardon Me tab

Help us improve GuitareTab! Take a short survey!
-------------------------------------------------------------------------------
			     Pardon me- Elemeno P
-------------------------------------------------------------------------------
Tabbed by: Rockchickash
Email: rockchick_bandit@hotmail.com

Tuning: E
        B
        G
        D
        A
        E 

Intro
e|---------------------------------------------------------------------------|
B|---------------------------------------------------------------------------|
G|---------------------------------------------------------------------------|
D|---------------------------------------------------------------------------|
A|9999999-/77-----------Repeat 4X--------------------------------------------|
E|7777777-/55----------------------------------------------------------------|

Verse
e|---------------------------------------------------------------------------|
B|---------------------------------------------------------------------------|
G|------77777------------------------77777-----------------------------------|
D|------55555------------------------55555-----------------------------------|
A|99999-------55555-44444-----99999---------55555-44444----------------------|
E|77777-------33333-22222-----77777---------33333-22222----------------------|

Courus
e|---------------------------------------------------------------------------|
B|---------------------------------------------------------------------------|
G|---------------------------------------------------------------------------|
D|---------------------------------------------------------------------------|
A|99-77-55-77---99-77-55-77---99-77-55-77-55-77-----99-77-55-77--------------|
E|77-55-33-55---77-55-33-55---77-55-33-55-33-55-----77-55-33-55--------------|
Verse
e|---------------------------------------------------------------------------|
B|---------------------------------------------------------------------------|
G|------77777----------------------------------------------------------------|
D|------55555----------------------------------------------------------------|
A|99999-------55555-44444----------------------------------------------------|
E|77777-------33333-22222----2 X---------------------------------------------|
Bridge
e|---------------------------------------------------------------------------|
B|---------------------------------------------------------------------------|
G|---------------------------------------------------------------------------|
D|---------------------------------------------------------------------------|
A|999999--Repeat About 5 X---------------------------------------------------|
E|777777---------------------------------------------------------------------|

Courus
e|---------------------------------------------------------------------------|
B|---------------------------------------------------------------------------|
G|---------------------------------------------------------------------------|
D|---------------------------------------------------------------------------|
A|99-77-55-77---99-77-55-77---99-77-55-77-55-77------------------------------|
E|77-55-33-55---77-55-33-55---77-55-33-55-33-55------------------------------|
Repeat a few times, Then song ends.

Hope its good, this is my first tab, email me with any comments, Suggestions Ect
Thanks
| /  slide up
| \  slide down
| h  hammer-on
| p  pull-off
| ~  vibrato
| +  harmonic
| x  Mute note
===============================================================================
Related for Pardon Me tab