Song name
# A B C D E F G H I J K L M N O P Q R S T U V W X Y Z

Elemeno P - Fast Times In Tahoe tab

This is an awesome song by an awesome band, i've played it for my school twice and they loved it.

Listen to the song to get the timing.

This is the only one on the net like it.

Standard tuning.

/=slide
x3=again 3 times
x5=again 5 times
x7=again 7 times

Intro

e[---------------------------------------------------------------------]
b[---------------------------------------------------------------------]
g[---------------------------------------------------------------------]
D[---666---------------------------------------------------------------]
A[---444---6666/888---3333/444---666-x7--------------------------------]
E[---------4444/666---1111/222---444-x7--------------------------------]


e[---------------------------------------------------------------------]
b[---------------------------------------------------------------------]
g[---------------------------------------------------------------------]
D[---6666--------------------------------------------------------------]
A[---4444---6666---8888---3333---4444---6666-x3------------------------]
E[----------4444---6666---1111---2222---4444-x3------------------------]


Run down
(play this really fast)
e[---------------------------------------------------------------------]
b[---------------------------------------------------------------------]
g[---------------------------------------------------------------------]
D[---666666665555555533333333------------------------------------------]
A[---444444443333333311111111333333334444444466666666-x3---------------]
E[---------------------------111111112222222244444444-x3---------------]


e[---------------------------------------------------------------------]
b[---------------------------------------------------------------------]
g[---------------------------------------------------------------------]
D[---6666--------------------------------------------------------------]
A[---4444---6666---8888---3333---4444---6666-x3------------------------]
E[----------4444---6666---1111---2222---4444-x3------------------------]


Guitar solo
                        (This is an eleven)
e[-----121---642411212444646894119899468-------------------------------]
b[---22---422----------------------------------------------------------]
g[---------------------------------------------------------------------]
D[---------------------------------------------------------------------]
A[---------------------------------------------------------------------]
E[---------------------------------------------------------------------]


e[---------------------------------------------------------------------]
b[---------------------------------------------------------------------]
g[---------------------------------------------------------------------]
D[---6-----------------------------------------------------------------]
A[---4---6666---8888---3333---4444---6666------------------------------]
E[-------4444---6666---1111---2222---4444------------------------------]


e[---------------------------------------------------------------------]
b[---------------------------------------------------------------------]
g[---------------------------------------------------------------------]
D[---6666--------------------------------------------------------------]
A[---4444---6666---8888---3333---4444---6666-x5------------------------]
E[----------4444---6666---1111---2222---4444-x5------------------------]


e[---------------------------------------------------------------------]
b[---------------------------------------------------------------------]
g[---------------------------------------------------------------------]
D[---6-----------------------------------------------------------------]
A[---4-----------------------------------------------------------------]
E[---------------------------------------------------------------------]

By Oliver George
Tap to rate this tab
# A B C D E F G H I J K L M N O P Q R S T U V W X Y Z