Guitaretab - guitar tabs
Song name
# A B C D E F G H I J K L M N O P Q R S T U V W X Y Z

Element Eighty - War tab

-------------------------------------------------------------------------------
			     Element Eighty - War
-------------------------------------------------------------------------------
Tabbed by: Josť
Email: poyta@jippii.fi

Send any corrections to my e-mail
Tuning: A E A D F# B  

.   Palm Mute
Ph  Pinch Harmonic

Intro
e|---------------------------------------------------------|
B|---------------------------------------------------------|
G|---------------------------------------------------------|
D|-----7----7----7----7----7-7-----7----7----7----7----77--|
A|---------------------------------------------------------|
E|--00---00---00---00---00------00---00---00---00---00-----|

e|---------------------------------------------------|
B|---------------------------------------------------|
G|---------------------------------------------------|
D|-----12----7----8----8----1010-----7----7----------|
A|---------------------------------------------------|
E|--00----00---00---00---00-------00---00---00--12/--|
[ Tab from: http://www.guitaretab.com/e/element-eighty/142799.html ]
Verse
e|--------------------------------------------------------|
B|--------------------------------------------------------|
G|----------------------------------------------7-9-9-10--|
D|--0-0-0-0--0-0-000-0-0--0-0-0-0--0-0-000-0-0--x-x-x-x---|
A|--0-0-0-0--0-0-000-0-0--0-0-0-0--0-0-000-0-0--5/7-7/8---|
E|--0-0-0-0--0-0-000-0-0--0-0-0-0--0-0-000-0-0------------|
    . . . .  . . ... . .  . . . .  . . ... . .              
e|-------------------------------------------------------|------------|
B|-------------------------------------------------------|-Whammy Bar-|
G|-------------------------------------------------------|------------|
D|--8-8-8-8--8-3-355-5-5--8-8-8-8--8-8--888-555-777-333--|------------|
A|--8-8-8-8--8-3-355-5-5--8-8-8-8--8-8--888-555-777-333--|------------|
E|--8-8-8-8--8-3-355-5-5--8-8-8-8--8-8--888-555-777-333--|--0///12\\--|
    . . . .  . . ... . .  . . . .  . .  ... ... ... ...
Chorus
e|-----------------------------------------------------------|
B|-----10---10---10---10---1010----10---10---10---10---1010--|
G|-----x----x----x----x----x-x-----x----x----x----x----x-x---|
D|-----7----7----7----7----7-7-----7----7----7----7----77----|
A|--00---00---00---00---00------00---00---00---00---00-------|
E|--00---00---00---00---00------00---00---00---00---00-------|
    ..   ..   ..   ..   ..      ..   ..   ..   ..   ..
e|----------------------------------------------------------------|
B|-----15----10---11---11---1313-----10---10----------------------|
G|-----x-----x----x----x----x-x------x----x-----------------------|
D|-----12----7----8----8----1010-----7----7----10*Ph-0-000-12*Ph--|
A|--00----00---00---00---00-------00---00---00-------0-000--------|
E|--00----00---00---00---00-------00---00---00-------0-000--------|
    ..    ..   ..   ..   ..       ..   ..   ..       . ...
Bridge
e|--------------------------------------------------------------------|
B|--------------------------------------------------------------------|
G|--------------------------------------------------------------------|
D|--------------------------------------------------------------------|
A|--------------------------5/7-7-7--------------------------5/7-7-7--|
E|--0-0-0-0--0-0-0--0-0-0-0----------0-0-0-0--0-0-0--0-0-0-0----------|

e|----------------------------------------------------------------------------------|
B|----------------------------------------------------------------------------------|
G|----------------------------------------------------------------------------------|
D|----------------------------------------------------------------------------------|
A|----------------------------------------------------------------------------------|
E|--8-8-8-8--8-8-8--8-8-8-8-5-5-5-3/5-5-5--8-8-8-8--8-8-8--8-8-8-8-8-8-8-8-8-8-8-8--|

Bridge Cont.
e|----------------------------------------------------------------------|
B|----------------------------------------------------------------------|
G|---------------------------7-9-9-9---------------------------7-9-9-9--|
D|--0-0-0-0--0-0-0--0-0-0-0--x-x-x-x--0-0-0-0--0-0-0--0-0-0-0--x-x-x-x--|
A|--0-0-0-0--0-0-0--0-0-0-0--5/7-7-7--0-0-0-0--0-0-0--0-0-0-0--5/7-7-7--|
E|--0-0-0-0--0-0-0--0-0-0-0-----------0-0-0-0--0-0-0--0-0-0-0-----------|
    . . . .  . . .  . . . .           . . . .  . . .  . . . .             
e|-----------------------------------------------------------|
B|-----------------------------------------------------------|
G|-----------------------------------------------------------|
D|--8-8-8-8--8-8-8--8-5-5-5--3-5-5--8-8-8-8-8-8-8-8-8-8-8-8--|
A|--8-8-8-8--8-8-8--8-5-5-5--x-x-x--8-8-8-8-8-8-8-8-8-8-8-8--|
E|--8-8-8-8--8-8-8--8-5-5-5--3/5-5--8-8-8-8-8-8-8-8-8-8-8-8--|
    . . . .  . . .  . . . .         . . . . . . . . . . . .            

Solo (Wah)
e|---------------------------------------------------------------------------------------------------------|
B|--13-12-10-12--8-8/10--13-12-10-12--8-8/10--8-7-5-7--3-3/5--8-7-5-7--------------------------------------|
G|---------------------------------------------------------------------------------------------------------|
D|---------------------------------------------------------------------------------------------------------|
A|---------------------------------------------------------------------------------------------------------|
E|---------------------------------------------------------------------8-8-8-8--5-5-5-5--7-7-7-7--3-3-3-3--|
Related for War tab