Song name
# A B C D E F G H I J K L M N O P Q R S T U V W X Y Z

Elliot Minor - Electric High tab

Hey this is my first proper tab (that isn't all standard chords) so i dunno... it might 
alright :)

E|-12-10--------------|  |------------|
B|-------10-12b-10----|  |------------|
G|-----------------12-|x6|-7----10----|
D|--------------------|  |-7-x8-10-x5-|
A|--------------------|  |-5-----8----|
E|--------------------|  |------------|

(Verse)
E|---------------------------------------|
B|---------------------------------------|
G|-2-2-2-2-x4-9-9-9-9-x2-4-4-4-4-x2------|
D|---------------------------------------|x2
A|---------------------------------------|
E|---------------------------------------|

(Bridge)
E|-------------------------------|
B|-------------------------------|
G|-7----5----4----7----5----4----|
D|-7-x8-5-x4-4-x4-7-x8-5-x4-4----|
A|-5----3----2----5----3----2----|
E|-------------------------------|

(Chorus)
E|-------------------------------------|
B|-------------------------------------|
G|------------5----7-------------------|
D|--7----3----5-x4-7-x4-7----3----5----|x2
A|--7-x4-3-x4-3----5----7-x4-3-x4-5-x4-|
E|--5----1--------------5----1----3----|

I'm not totally sure about the rest.. feedback? x
Tap to rate this tab
# A B C D E F G H I J K L M N O P Q R S T U V W X Y Z