Song name
# A B C D E F G H I J K L M N O P Q R S T U V W X Y Z

Emiliana Torrini - Snow tab

-------------------------------------------------------------------------------
			                        Snow - Emiliana Torrini
-------------------------------------------------------------------------------
Tabbed by:Poschek	
Email:

Tuning:BAC#DAC#
Another wonderful song. The tuning is wierd. I dont know if this is the 
original tuning, but it works perfectly.

1|----------------------------------------0------------------------0---------|
2|------------------------------------0-------------------------0------------|
3|-------------------------11-----11----------11------------11---------11----|
4|-4--------5-----7------------0---------0-0-----0-------0--------0-0-----0--|
5|-------4-------------------------------------------------------------------|
6|-2--------3-----5--------10------------------------10----------------------|
 
1|----------------------------------------0------------------------0---------|
2|------------------------------------0-------------------------0------------|
3|-------------------------11-----11----------11------------11---------11----|
4|-4--------5-----7------------0---------0-0-----0-------0--------0-0-----0--|
5|----4--------5-----7-------------------------------------------------------|
6|-2-----2--3-----5--------10------------------------10----------------------|

1|----------------------------------------0----------------------------------|
2|------------------------------------0--------------------------------------|
3|--------------------------------11----------11----------11----9---9--------|
4|-4-----4--5-----7------------0---------0-0-----0------0----0----0---0------|
5|----4--------5-----7-------------------------------------------------------|
6|-2--------3-----5--------10------------------------10---------8------------|

1|--------------0-----------------------0-------------------------0----------|
2|----------0-----------------------0-------------------------0--------------|
3|-------------------------------------------------11-----11----------11-----|
4|-5-----5----------5------7-----7----------7----------0---------0-0------0--|
5|----5--------5-5-----5------7--------7-7-----7-----------------------------|
6|-3-----------------------5-----------------------10------------------------|

1|---------------------------|
2|---------------------------|
3|--------11----9---9--------|
4|------0----0----0---0------|
5|---------------------------|
6|---10---------8------------|

              
Variations:

1|--------------0-----------------------0------------------------------------|
2|----------0-----------------------0-------------------------0-----0--------|
3|-------------------------------------------------11-----11----------11-----|
4|-5-----5----------5------7-----7----------7----------0---------0--------0--|
5|----5--------5-5-----5------7--------7-7-----7-----------------------------|
6|-3-----------------------5-----------------------10------------------------|

1|-------------------------|
2|-12-----------9----------|
3|----11---11------9---9---|
4|-------0-----------0-----|
5|-------------------------|
6|-10-----------8----------|

1|--------------0------------------------0--------------------------0--------|
2|-4--------0-----------------------0-------------------------0--------------|
3|----0--------------------------------------------11-----11-------------11--|
4|-------5-------------5---7-----7-------------7-------0---------0----0------|
5|------------5----5---------7---------7---7---------------------------------|
6|-3-----------------------5-----------------------10------------------------|

1|---------------------------|
2|------------------0--------|
3|--------11----9------------|
4|------0----0----0---0------|
5|---------------------------|
6|---10---------8------------|





************************************
Tap to rate this tab
# A B C D E F G H I J K L M N O P Q R S T U V W X Y Z