Guitaretab - guitar tabs
Song name
# A B C D E F G H I J K L M N O P Q R S T U V W X Y Z

Emiliana Torrini - Today Has Been Ok tab

CHORDS:


         Bb                                                     Gm

E]----------------------------------------------------------------------------
B]----------------------------------------------------------------------------
G]----------------------------------------------------------------------------
D]----------8-------8----8-----6----------------------5------5----5-----5-----
A]-------8---------------------------8-------------5------------------------5-
E]----6-------6-------------6-------------------3--------3-----------3--------

[ Tab from: http://www.guitaretab.com/e/emiliana-torrini/70417.html ]
         Eb                                                       Bb
E]---------------------------------------------------------------------------------
B]---------------------------------------------------------------------------------
G]---------------------------------------------------------------------------------
D]----------13------13--13-----13--------------------8--------8----8-------6-------
A]-------13----------------------------13----------8------------------------------8
E]----11-------11-----------11-------------------6-------6--------------6----------


        Ab                                                        Bb
E]-----------------------------------------------------------------------------------
B]-----------------------------------------------------------------------------------
G]-----------------------------------------------------------------------------------
D]----------6------6---6---------6---------------------8--------8----8-------6-------
A]-------6-----------------------------6------------8------------------------------8-
E]----4--------4-----------6---------------------6-------6--------------6------------


INTRO: Bb [x4]


Verse 1:

Bb                   Gm
Friends tell me it's spring
Bb                   Gm
My window show the same
Bb                       Gm              Bb               Gm
Without you here the seasons pass me by
Eb                       Bb
I know you were not new
Eb                        Bb
That loved like me and you
Eb                  Bb
All the same I miss you

Ab                     Bb
Today has been ok
Ab                     Bb [x4]
Today has been ok
Related for Today Has Been Ok tab