Song name
# A B C D E F G H I J K L M N O P Q R S T U V W X Y Z

Enanitos Verdes - Tu Carcel tab

Intro:

E--------------------------------------------------|
B--------------------------------------------------|
G--7s9--9/7-5----5-5-7-7s9-9-5-7-7-5-4-------------|
D--------------------------------------------------|
A--------------------------------------------------|
E--------------------------------------------------|


E-------------------------------------------------|
B-------------------------------------------------|
G--4-4-5-7-7-4-5--5-4-2---2-2-2-5-4-2-4/5/7-------|
D-------------------------------------------------|
A-------------------------------------------------|
E-------------------------------------------------|


     D                             A
E---------------------------------------------------|
B---------------------------------------------------|
G--7s9--9/7-5----5-5-7-7s9-9-5-7-7-5-4--------------|
D---------------------------------------------------|
A---------------------------------------------------|
E---------------------------------------------------|

              Bm          G                  A
E-------------------------------------------------|
B-------------------------------------------------|
G--4-4-5-7-7-4-5--5-4-2---2-2-2-5-4-2-4/5/7-------|
D-------------------------------------------------|
A-------------------------------------------------|
E-------------------------------------------------|

     D                             A
E---------------------------------------------------|
B---------------------------------------------------|
G--7s9--9/7-5----5-5-7-7s9-9-5-7-7-5-4--------------|
D---------------------------------------------------|
A---------------------------------------------------|
E---------------------------------------------------|

              Bm          G                  A
E-----------------------------------------------------------|
B-----------------------------------------------------------|
G--4-4-5-7-7-4-5--5-4-2---2-2-2-5-4-2-4/5/7--7h9-7h9-7h9----|
D-----------------------------------------------------------|
A-----------------------------------------------------------|
E-----------------------------------------------------------|

C-G-Am-F-D-G

 C
Te vas amor, si así lo quieres
     G
que puedo yo hacer, tu vanidad
       Am
no te deja entender
F                   D         G
 que en pobreza se sabe querer.

  C
Quiero llorar, y me destroza
     G
que pienses así, y más que
           Am
ahora me quede sin ti
F                    D           G-G7
 me duele lo que tu vas a sufrir.


Coro:

C
Pero recuerda, nadie es perfecto
   G
y tú lo veras, mas de mil cosas
   Am
mejores tendrás
F                D         G
 pero cariño sincero jamás.

C
Vete olvidando, esto que hoy dejas
    G
y que cambiaras, por la aventura
     Am
que tu ya veras,
F                  D            G
 será tu cárcel y nunca saldrás.


 SOLO 1:

E|---------------------------------------------------------------------|
B|--5h7--7-5-----------------------------------------------------------|
G|------------7--7-7--9--11-11--7-7h9--9-7-6--6-6--7--9-9--6h7--7-6-5--|
D|---------------------------------------------------------------------|
A|---------------------------------------------------------------------|
E|---------------------------------------------------------------------|

E|--------------------------------------------------------------|
B|--4-4-6-7-6-4-6-7-9-9--9h11-9h11-9h11-9h11-9h11-9h11-9h11--9--|
G|--------------------------------------------------------------|
D|--------------------------------------------------------------|
A|--------------------------------------------------------------|
E|--------------------------------------------------------------|

 C
Quiero llorar, y me destroza
     G
que pienses así, y más que
           Am
ahora me quede sin ti
F                    D           G-G7
 me duele lo que tu vas a sufrir.


Coro:

C
Pero recuerda, nadie es perfecto
   G
y tú lo veras, mas de mil cosas
   Am
mejores tendrás
F                D         G
 pero cariño sincero jamás.

C
Vete olvidando, esto que hoy dejas
    G
y que cambiaras, por la aventura
     Am
que tu ya veras,
F                  D            G
 será tu cárcel y nunca saldrás.

C
Pero recuerda, nadie es perfecto
   G
y tú lo veras, mas de mil cosas
   Am
mejores tendrás
F                D         G
 pero cariño sincero jamás.

C
Vete olvidando, esto que hoy dejas
    G
y que cambiaras, por la aventura
     Am
que tu ya veras,
F                  D            G
 será tu cárcel y nunca saldrás.

SOLO 2
1a parte

E--------------------------------------------------|
B--15/17-17-15--------------15-17-17---15-15-------|
G--------------19-----19-19---------19------17-18--|
---------------------------------------------------|
D--------------------------------------------------|
A--------------------------------------------------|
E--------------------------------------------------|

E-------------------------------------------|
B----------15-15----------------------------|
G--18-18-19-----18-19--19-18-16-------------|
D-------------------------------------------|
A-------------------------------------------|
E-------------------------------------------|

E-----------------------------------------------------|
B---------------------------15--15--15s17//-17-15/17--|b
G16-16-16-19-18-16-18-19--18--18----------------------|
D-----------------------------------------------------|
A-----------------------------------------------------|
E-----------------------------------------------------|

2a parte
E--------------------------------------------------|
B--------------------------------------------------|
G--7s9--9/7-5----5-5-7-7s9-9-5-7-7-5-4-------------|
D--------------------------------------------------|
A--------------------------------------------------|
E--------------------------------------------------|


E---------------------------------------------------------------|
B---------------------------------------------------------------|
G--4-4-5-7-7-4-5--5-4-2---2-2-2-5-4-2-4/5/7---7/9-7-9-7-5/------|
D---------------------------------------------------------------|
A---------------------------------------------------------------|
E---------------------------------------------------------------|
Tap to rate this tab
# A B C D E F G H I J K L M N O P Q R S T U V W X Y Z