Song name
# A B C D E F G H I J K L M N O P Q R S T U V W X Y Z

Ennio Morricone - Il Tramanto Sundown tab

|--------------------------------------|-----------------------------------|
|------------8-10-8----------8--7~-----|----------8-10-8-------------------|
|-7~---9-10----------10-9~-------------|-7--9-10---------10-9~---7h9/5~----|
|--------------------------------------|-----------------------------------|
|--------------------------------------|-----------------------------------|
|--------------------------------------|-----------------------------------|


|------------5-6-8-6-5-----6-5~--------------------------------------------|
|--------6-8------------8--------6-8---6-5-6-5-3----5~----1-3~-------------|
|--------------------------------------------------------------------------|
|--------------------------------------------------------------------------|
|--------------------------------------------------------------------------|
|--------------------------------------------------------------------------|

|-----------------------------8-8~-----|-----------------------------------|
|----------8-10-8----------------------|---------8-10-8--------------------|
|-7--9-10-----------10-9~--------------|-7--9-10---------10~----10p9---9~--|
|--------------------------------------|-----------------------------------|
|--------------------------------------|-----------------------------------|
|--------------------------------------|-----------------------------------|



|---------------------------------------------------------|
|--------------6-8-6--------------------------------------|
|---5--7--9-9~-------9~---7h9--7~----9h10p9-----7~--------|
|---------------------------------------------------------|
|---------------------------------------------------------|
|---------------------------------------------------------|

|----------------------------------------------------------------------|
|----------------------------------------------------------------------|
|----------------------------0------0--------------0--0---------0--0---|
|-------------------0---0--0--0---0---0----0--0--0--0---0---0--0--0--0-|
|-0---0---0---0---0---0--0-------0--------0--0--0---------0--0---------|
|----------------------------------------------------------------------|


h-hammer on
p-pull off
/-slide
*-palm mute
b-bend
/\/\-vibrato
Tap to rate this tab
# A B C D E F G H I J K L M N O P Q R S T U V W X Y Z