Guitaretab - guitar tabs
Song name
# A B C D E F G H I J K L M N O P Q R S T U V W X Y Z

Ennio Morricone - The Good The Bad The Ugly tab

THE GOOD, THE BAD, AND THE UGLY THEME
Artist: Ennio Morricone

Tabbed by Ruben Van Velzen

I think itís the best western movie ever made.
And the best soundtrack to the tab is quite good maybe there are a few mistakeís in it.  

The first part is easy but the second part is really hard to play.

INTRO

E|---0---0--------------|---0---0--------------|
B|-0---0---0v-----------|-0---0---0v---------3-|
G|--------------0--2----|--------------0--2----|
D|--------------------2-|----------------------|
A|----------------------|----------------------|
E|----------------------|----------------------|

E|---0---0-----------------|---0---0--------------|
B|-0---0---0v--------------|-0---0---0v-----------|
G|--------------0v---------|--------------2-------|
D|-------------------4-2-0-|-----------------2-2v-|
A|-------------------------|----------------------|
E|-------------------------|----------------------|

E|----12----12-----------------|----12----12------------------|
B|-12----12----12v-------------|-12----12----12v-----------15-|
G|-------------------12--14--9-|-------------------12--14-----|
D|-----------------------------|------------------------------|
A|-----------------------------|------------------------------|
E|-----------------------------|------------------------------|

E|----12----12---------------------|----12----12-----------------|
B|-12----12----12v-----------------|-12----12----12v---9---------|
G|-------------------12v---11-9----|----------------------10-10v-|
D|------------------------------12-|-----------------------------|
A|---------------------------------|-----------------------------|
E|---------------------------------|-----------------------------|

 The next part Must be Played very fast. 
[ Tab from: http://www.guitaretab.com/e/ennio-morricone/92890.html ]
E|-----------------------------------------------------------------------|
B|-----------------------------------------------------------------------|
G|-----------------------------------------------------------12h14-------|
D|-----------------------------------------------------14----------------|
A|------12----14-----------12----14--------12----14-12----15-------------|
E|-5-10----13---------5-10----13------5-10----13-------------------------|


E|-----------------------------------------------------------------------|
B|-----------------------------------------------------------------------|
G|----------12-------------12------------12------------12----------------|
D|-15p14-12----12-15p14-12---12-15p14-12---12-15p14-12----12-15p14-12----|
A|-----------------------------------------------------------------------|
E|-----------------------------------------------------------------------|


E|------------------------------------------------------------------------|
B|------------------------------------------------------------------------|
G|------------------------------------------------------------------------|
D|-15-14----12p10----12---------------------------------------------------|
A|------15--------14---15-12--14p12----14-12------------------------------|
E|----------------------------------15-------13-15p13-12-15-13-10-8ó8-9-10|


E|-----------------------------------------------------------------------|
B|-----------------------------------------------------------------------|
G|-----------------------------------------------------------12h14-------|
D|-----------------------------------------------------14----------------|
A|------12----14-----------12----14--------12----14-12----15-------------|
E|-5-10----13----------10----13-------5-10----13-------------------------|


E|-----------------------------------------------------------------------|
B|-10h15p10h15p10--------------10h15p10h15p10----------------------------|
G|-----------------------------------------------------------------------|
D|-----------------17--------------------------17------------------------|
A|--------------------17-17-----------------------17-17------------------|
E|-----------------------------------------------------------------------|

Thank you for Looking and please rate it.
I hope you enjoy it.
Related for The Good The Bad The Ugly tab