Song name
# A B C D E F G H I J K L M N O P Q R S T U V W X Y Z

Ensiferum - Victory Song tab

------------------------------------------------------------------------------
			     Victory Song - Ensiferum
-------------------------------------------------------------------------------
Tabbed by: Zach Moore
Email:Thisnamesuks13@hotmail.com

Tuning:Standard
                       *NOTE: This is the intro for the electric guitar*
 Intro
e|---------------------------------------------------------------------------|
B|---------------------------------------------------------------------------|
G|-----------------------------7---6---6------6------------------------------|
D|-----------------7---9---9--------------9--------5---4---2---2--4--5--7--4-|
A|7---9---10---10------------------------------------------------------------|
E|---------------------------------------------------------------------------|

e|---------------------------------------------------------------------------|
B|---------------------------------------------------------------------------|
G|-----------------------------7---6---9----4---4---6---7---7---6---4---4---2|
D|-----------------7---9---9-------------------------------------------------|
A|7---9---10---10------------------------------------------------------------|
E|---------------------------------------------------------------------------|

 (continued) 
e|--------------|
B|--------7-----|
G|4---4-------4-|
D|--------------|
A|--------------|
E|--------------|

         *On the last time around play this*
e|---------------------------------------------------------------------------|
B|---------------------------------------------------------------------------|
G|-----------------------------7---6---9----4---4---6---7---7---6---4---4---2|
D|-----------------7---9---9-------------------------------------------------|
A|7---9---10---10------------------------------------------------------------|
E|---------------------------------------------------------------------------|

 (continued) 
e|---------------------------------------------------|
B|--------7------------------------------------------|
G|4---4-------4----4---6---7---7---6---4----2---4----|
D|---------------------------------------------------|
A|---------------------------------------------------|
E|---------------------------------------------------|



| /  slide up
| \  slide down
| h  hammer-on
| p  pull-off
| ~  vibrato
| +  harmonic
| x  Mute note
===============================================================================
Tap to rate this tab
# A B C D E F G H I J K L M N O P Q R S T U V W X Y Z