Song name
# A B C D E F G H I J K L M N O P Q R S T U V W X Y Z

Ensiferum - Token Of Time tab

Help us improve GuitareTab! Take a short survey!
Ensiferum - Token of Time
Tuning : C F A# D# G C

Rhythm Acoustic Intro
                                                    3x
C ||--------------------------|------------------------||
G ||--------------------------|------------------2-----||
D#||*-------0-----------0-----|--------0----0----2----*||
A#||*-------2-----------2-----|--------2----0----2----*||
F ||--------2-----------2-----|--------2----2----0-----||
C ||---0----0---0-0--0--0---0-|--0--0--0----3----------||

                                                                
-----------------------||
------------------2----||
--------0----0----2----||
--------2----0----2----||
--------2----2----0----||
--0--0--0----3---------||


Acoustic Bridge - 1:00

----------------------------|-------------------------------|
----------------7-----------|-------------------------------|
--------7-6-7-9----9-7-6----|--6h7h6-------6h7h6------------|
--9---9---------------------|--------9--7--------9--7--9----|
----------------------------|-------------------------------|
----------------------------|-------------------------------|


                                                                 
------------------------------|---------------------------------|
----------------7--7-7--------|--5h7h5-------5h7h5--------------|
---------9--9-9--------6--6-7-|--------7--6--------7--6--7h6----|
--9--9-9----------------------|------------------------------9--|
------------------------------|---------------------------------|
------------------------------|---------------------------------|


                                                             
----------------------------|-------------------------------|
----------------7-----------|-------------------------------|
--------7-6-7-9----9-7-6----|--6h7h6-------6h7h6------------|
--9---9---------------------|--------9--7--------9--7--9----|
----------------------------|-------------------------------|
----------------------------|-------------------------------|


                                                                               

------------------------------|-----------------------------|------------------|
----------------7--7-7--------|--5h7h5----------------------|------------------|
---------9--9-9--------6--6-7-|--------7--6h7h6-------------|------------------|
--9--9-9----------------------|-----------------7--9--------|------------------|
------------------------------|-----------------------------|------------------|
------------------------------|-----------------------------|------------------|

Lead - 1:16

------------------------------------------|
--10h12h10-----10-------------------------|
-----------12--------11h12h11----------11-|
------------------------------14--12------|
------------------------------------------|
------------------------------------------|

--------------------------------------|----------------------------------------|
--------------------------------------|----------------10h12-10--10------------|
--------------11h12-11--11------------|--12h11-----12---------------12-11--12--|
--14--12--14---------------14-12--14--|--------14------------------------------|
--------------------------------------|----------------------------------------|
--------------------------------------|----------------------------------------|

--------------------------------|------------------------------------------|
--10----------------------------|--10h12h10-----10-------------------------|
-------12-11--12--11------------|-----------12--------11h12h11----------11-|
----------------------14--14----|------------------------------14--12------|
--------------------------------|------------------------------------------|
--------------------------------|------------------------------------------|

------------------------------------|--------------------------------------|
------------------------------------|----------------10h12-10--------------|
--------------11h12-11--------------|--12-11-----12-------------12-11--12--|
--14--12--14-------------14-12--14--|--------14----------------------------|
------------------------------------|--------------------------------------|
------------------------------------|--------------------------------------|

----------------------------||---------------------------|
--10------------------------||---------------------------|
------12--11----------------||*--------------------------|
--------------12--14--------||*---------5h4-5--------5h4-|
----------------------------||---7-------------7--7------|
----------------------------||---------------------------|
Related for Token Of Time tab