Guitaretab - guitar tabs
Song name
# A B C D E F G H I J K L M N O P Q R S T U V W X Y Z

Enter Shikari - Gap In The Fence tab

-------------------------------------------------------------------------------
			     Gap In The Fence - Enter Shikari
-------------------------------------------------------------------------------
Tabbed by:nospacesallowed
Email: nospacesallowed@googlemail.com

Tuning: eadgbe
[ Tab from: http://www.guitaretab.com/e/enter-shikari/190662.html ]
Guys, this took me AGES. So please use nicely :)

e|-----5---3-------3-------5---3-------3----|
B|-------6---6-3-6---6-------6---6-3-6---6--|
G|------------------------------------------|
D|-----3---3---3---3-------3---3---3---3----|
A|-------5---5---5---5-------5---5---5---5--|
E|------------------------------------------|

Repeat appropriately.
Related for Gap In The Fence tab
×
Gap In The Fence