Song name
# A B C D E F G H I J K L M N O P Q R S T U V W X Y Z

Eraserheads - Minsan chords

Highlighted       Show chord diagrams
-------------------------------------------------------------------------------
			     Minsan - Eraserheads
-------------------------------------------------------------------------------
Tabbed by: Francis L

D                       DM7
Minsan sa may kalayaan tayo nagkatagpuan
Em          		             Gm    				             D-Dsus-D-D5-D
May mga sariling gimik at kanya-kanyang hangad sa buhay
                           DM7
Sa ilalim ng iisang bubong mga sikretong ibinubulong
Em                         Gm                         D-Dsus-D-D5-D
Kahit na anong mangyari kahit na saan ka man patungo            Ngunit

Refrain:
    DM7   D7  			               G
ngayon kay bilis maglaho ng kahapon
Gm              D  	  Gm                    A
Sana'y wag kalimutan ang ating mga pinagsamahan
    F#m         G         F#m        G
At kung sakaling gipitin ay laging iisipin
D              A            G              Gm
Na minsan tayo ay naging tunay na...
               D
Magkaibigan

e|-----------------------------------------------------------------------------|
B|-----------------------------------------------------------------------------|
G|------------------------------------------------------------------------7----|
D|----------------------------------------------------0-4h54--57-7/8---78------|
A|-------------------9----0---0-2-2h3----33-333-2-0----------------------------|
E|----5/10--10-12-10---10--2------------------------3--------------------------|

e|-----------------------------------------------------14------14-15-------15--|
B|----7h87------8-8/11-10-11-13-11-10-8----------------14--14------15--15------|
G|797------97-7--------------------------9-7--------------14----------15-------|
D|--------------------------------------------11-9-7---------------------------|
A|-----------------------------------------------------------------------------|
E|-----------------------------------------------------------------------------|

e|---14------14-15----15-12-12h14-14-12-10-9--12-10h9h10-----------------------|
B|15---14--14-----15--------------------------------------11-8-----------------|
G|-------14---------15-----------------------------------------11--------------|
D|-----------------------------------------------------------------------------|
A|-----------------------------------------------------------------------------|
E|-----------------------------------------------------------------------------|

(use verse chords)
Minsan ay parang wala ng bukas sa buhay natin
Inuman hanggang sa magdamag na para bang tayo'y mauubusan
SA ilalim ng bilog ng buwan mga tiyan nati'y walang laman
Ngunit kahit na walang pera ang bawat gabi'y anong saya

(repeat refrain)
E			            EM7
Minsan ay hindi mo na alam ang nangyayari
F#m			          Am			                              E
Kahit na anong gawin lahat ng bagay ay mayroong hangganan
	     EM7   E7                             A
Dahil ngayon tayo ay nilimot ng kahapon
Am               E        Am                                   B
Di na mapipilitang buhayin ang ating pinagsamahan
	    G#m hold	      A hold           G#m hold         A hold
Ngunit kung sakaling mapadaan baka ikaw ay aking tawagan
	E                   B             A                 Am
Dahil minsan tayo ay naging tunay na...
	    E-EM7-F#m-A-Am-E
Magka-ibigan
e|-----------------------------------------------------------------------------|
B|-----------------------------------------------------------------------------|
G|-----------------------------------------------------------------------------|
D|-------------------------------------------------------10-/14----------------|
A|-----------------11-11-11-12-11-----------------12-14------------------------|
E|7/12-12-12-14-12----------------14-14-14-13-14-------------------------------|


************************************

| /   slide up
| \   slide down
| h   hammer-on
| p   pull-off
| ~   vibrato
| +   harmonic
| x   Mute note
| b   Bend
| pb  Pre-bend
| br  Bend release
| pbr Pre-bend release
| brb Bend release bend

************************************
Tap to rate this tab
# A B C D E F G H I J K L M N O P Q R S T U V W X Y Z