Song name
# A B C D E F G H I J K L M N O P Q R S T U V W X Y Z

Escape The Fate - On To The Next One tab

-------------------------------------------------------------------------------
			   On to the Next One - Escape the Fate
-------------------------------------------------------------------------------
Tabbed by:Steven Bolin
Email:bolindr@bellsouth.net

Tuning:Drop C

D|---------------------------------------------------------|
A|---------------------------------------------------------|
F|---------------------------------------------------------|
C|---------------------------------------------------2-----|  x3
G|-----5-----5--5h7-5--x-4p0-----5-----5-------4-----------|
C|--0-----0-------------------3-----3-----3\2-----2--------|

D|---------------------------------------------------------|
A|----------------------------------------6p5-----5h6-5----|
F|---------------------------------------------7--------7*-|
C|----------------------------------3--7-------------------| 
G|-----5-----5--5h7-5--x-4p0-----5-------------------------|
C|--0-----0-------------------3----------------------------|
Key:
| *  pinch harmonic
| /  slide up
| \  slide down
| h  hammer-on
| p  pull-off
| ~  vibrato
| +  harmonic
| x  Mute note
===============================================================================
Tap to rate this tab
# A B C D E F G H I J K L M N O P Q R S T U V W X Y Z