Song name
# A B C D E F G H I J K L M N O P Q R S T U V W X Y Z

Escape The Fate - Situations tab

-------------------------------------------------------------------------------
			     Situations - Escape The Fate
-------------------------------------------------------------------------------
Tabbed by:airbrndeathroll
Email:igotacupcakedownmypants@hotmail.com

hey sup.this is my first tab so go easy.
i think this is the most accurate tab out on the net at the moment 
so rate it and give me feedback about what you think.

Tuning: Drop D

INTRO

e|---------------------------------------------------------------------------|
B|---------------------------------------------------------------------------|
G|---------------------------------------------------------------------------|
D|---------------------------------------------------------------------------|
A|--88--77--7/--44--33--7~---------------------------------------------------|
D|--88--77--7/--44--33--7~---------------------------------------------------|


VERSE (rhythm guitar plays x4, lead plays x2)
PALM MUTED

e|---------------------------------------------------------------------------|
B|---------------------------------------------------------------------------|
G|---------------------------------------------------------------------------|
D|---------------------------------------------------------------------------|
A|--8------7------4------3-----7---------------------------------------------|
D|--8-x16--7-x16--4-x16--3-x8--7-x8------------------------------------------|


LEAD VERSE X4 (played over the top of rhythm in the verse)

e|---------------------------------------------------------------------------|
B|---------------------------------------------------------------------------|
G|--7-7--9-9--10-10--9-9------------------------------------------------------|
D|--x-x--x-x--x-x----x-x-----------------------------------------------------|
A|--5-5--7-7--8-8----7-7-----------------------------------------------------|
D|---------------------------------------------------------------------------|

PRE-CHORUS BOTH GUITARS

e|---------------------------------------------------------------------------|
B|---------------------------------------------------------------------------|
G|---------------------------------------------------------------------------|
D|--1~-1~-1~-1~--3~--3~--3~--3~--4~--4~--4~--4~--6--6--6--6----6--6--7--7----|
A|--1~-1~-1~-1~--3~--3~--3~--3~--4~--4~--4~--4~--6--6--6--6----6--6--7--7----|
D|--1~-1~-1~-1~--3~--3~--3~--3~--4~--4~--4~--4~--6--6--6--6----6--6--7--7----|

RHYTHM CHORUS

e|---------------------------------------------------------------------------|
B|---------------------------------------------------------------------------|
G|---------------------------------------------------------------------------|
D|---------------------------------------------------------------------------|
A|--8------7------4------3-----7---------------------------------------------|
D|--8-x16--7-x16--4-x16--3-x8--7-x8------------------------------------------|x2

LEAD CHORUS (listen carefully for the strumming patten)

STRUMMED

e|---------------------------------------------------------------------------|
B|---------------------------------------------------------------------------|
G|--7--12--10--6--10--9--12--14--12--14--10----------------------------------|
D|--x--x---x---x--x---x---x---x---x---x--x-----------------------------------|
A|--5--10--8---4--8---7--10--12--10--12--8-----------------------------------|
D|---------------------------------------------------------------------------|x2

2nd VERSE BOTH GUITARS

e|---------------------------------------------------------------------------|
B|---------------------------------------------------------------------------|
G|---------------------------------------------------------------------------|
D|---------------------------------------------------------------------------|
A|--88-----------------------------------------------------------------------|
D|--88-----------------------------------------------------------------------|


REPEAT VERSE & CHORUS


BRIDGE RHYTHM

e|---------------------------------------------------------------------------|
B|---------------------------------------------------------------------------|
G|---------------------------------------------------------------------------|
D|--7~--3~--5~--2~-----------------------------------------------------------|
A|---------------------------------------------------------------------------|
D|---------------------------------------------------------------------------|

BRIDGE LEAD

e|---------------------------------------------------------------------------|
B|--16~--13~--15~--12~-------------------------------------------------------|
G|---------------------------------------------------------------------------|
D|---------------------------------------------------------------------------|
A|---------------------------------------------------------------------------|
D|---------------------------------------------------------------------------|

BRIDGE BOTH GUITARS

e|---------------------------------------------------------------------------|
B|---------------------------------------------------------------------------|
G|---------------------------------------------------------------------------|
D|--1~-1~-1~-1~--3~--3~--3~--3~--4~--4~--4~--4~--6--6--6--6----6--6--7--7----|
A|--1~-1~-1~-1~--3~--3~--3~--3~--4~--4~--4~--4~--6--6--6--6----6--6--7--7----|
D|--1~-1~-1~-1~--3~--3~--3~--3~--4~--4~--4~--4~--6--6--6--6----6--6--7--7----|X2

BOTH GUITARS (palm muted)


e|---------------------------------------------------------------------------|
B|---------------------------------------------------------------------------|
G|---------------------------------------------------------------------------|
D|---------------------------------------------------------------------------|
A|--8------7------4------3~--------------------------------------------------|
D|--8-x16--7-x16--4-x16--3~--------------------------------------------------|

REPEAT CHORUS

OUTRO RHYTHM

e|---------------------------------------------------------------------------|
B|---------------------------------------------------------------------------|
G|---------------------------------------------------------------------------|
D|--7~--3~--5~--2~--0~-------------------------------------------------------|
A|--7~--3~--5~--2~--0~-------------------------------------------------------|
D|--7~--3~--5~--2~--0~-------------------------------------------------------|

OUTRO LEAD


e|--15~--11~--13~--10~--11~--------------------------------------------------|
B|---------------------------------------------------------------------------|
G|---------------------------------------------------------------------------|
D|---------------------------------------------------------------------------|
A|---------------------------------------------------------------------------|
D|---------------------------------------------------------------------------|


| /  slide up
| \  slide down
| h  hammer-on
| p  pull-off
| ~  vibrato
| +  harmonic
| x  Mute note
===============================================================================
Tap to rate this tab
# A B C D E F G H I J K L M N O P Q R S T U V W X Y Z