Song name
# A B C D E F G H I J K L M N O P Q R S T U V W X Y Z

Evanescence - What You Want tab

Artist: Evanescence
Title: What You Want
Album: Evanescence

Tuning: (low to high) B F# B E G# C#

Tabbed by: FireReaverX


Verse
C#|-------------------------------------------------------------------------|
G#|-------------------------------------------------------------------------|
E |-------------------------------------------------------------------------|
B |-------------------------------------------------------------------------| 3x
F#|-5-5-5-----5-5-6-6-6-6-----3-3-5-5-5-5-----5-5-6-/12-10------------------|
B |-0-0-0-----0-0-0-0-0-0-----0-0-0-0-0-0-----0-0-0--------12-10-10-0-10h12-|


Pre-Chorus
C#|----------------------------------------------------------------------------------------------|
G#|----------------------------------------------------------------------------------------------|
E |------------------------------------------------------------------------------------10---12---|
B |------------------------------------------------------------------------------------10---12---|
F#|-10--10--10-10--10-10--10-10\--5--5--5-5--5-5--5-5\--8--8--8-8--8-8--8-8-------------8---10---|
B |--------------------------------------------------------------------------10--12--0-----------|


Chorus
C#|-----------------------------------------------------------------|
G#|-----------------------------------------------------------------|
E |-------------------------------------------------5-5-5-5-5-5-5-5-|
B |-0-0-0-0-0-0-0-0-0-0-0-0-0-0-0-0-3-3-3-3-3-3-3-3-5-5-5-5-5-5-5-5-|
F#|-0-0-0-0-0-0-0-0-0-0-0-0-0-0-0-0-3-3-3-3-3-3-3-3-3-3-3-3-3-3-3-3-|
B |-0-0-0-0-0-0-0-0-0-0-0-0-0-0-0-0-3-3-3-3-3-3-3-3-----------------|

C#|-----------------------------------------------------------------|
G#|-----------------------------------------------------------------|
E |-----------------------------------------------------------------|
B |-0-0-0-0-0-0-0-0-0-0-0-0-0-0-0-0-3-3-3-3-3-3-3-3-7-7-7-7-7-7-7-7-|
F#|-0-0-0-0-0-0-0-0-0-0-0-0-0-0-0-0-3-3-3-3-3-3-3-3-7-7-7-7-7-7-7-7-|
B |-0-0-0-0-0-0-0-0-0-0-0-0-0-0-0-0-3-3-3-3-3-3-3-3-7-7-7-7-7-7-7-7-|


Verse
Pre-Chorus
Chorus


Bridge
C#|-------------------------------------------------------------------------------------|
G#|-------------------------------------------------------------------------------------|
E |-------------------------------------------------------------------------------------|
B |-0------0------0------3------3------3------5------5------5------8------8------8------|
F#|-0------0------0------3------3------3------5------5------5------8------8------8------|
B |-0---00-0---00-0---00-3---33-3---33-3---33-5---55-5---55-5---55-8---88-8---88-8---88-|
        ..     ..     ..     ..     ..     ..     ..     ..     ..     ..     ..     ..

C#|-------------------------------------------------------------------------------------|
G#|-------------------------------------------------------------------------------------|
E |-------------------------------------------------------------------------------------|
B |-0------0------0------3------3------3------5------5------5------7------7------7------|
F#|-0------0------0------3------3------3------5------5------5------7------7------7------|
B |-0---00-0---00-0---00-3---33-3---33-3---33-5---55-5---55-5---55-7---77-7---77-7---77-|
        ..     ..     ..     ..     ..     ..     ..     ..     ..     ..     ..     ..

C#|-----------------------------------------------------------------------------------------|
G#|-----------------------------------------------------------------------------------------|
E |-7-7-7-7-7-7-7-7-10-10-10-10-10-10-10-10-12-12-12-12-12-12-12-12-15-15-15-15-15-15-15-15-|
B |-----------------------------------------------------------------------------------------|
F#|-5-5-5-5-5-5-5-5--8--8--8--8--8--8--8--8-10-10-10-10-10-10-10-10-13-13-13-13-13-13-13-13-|
B |-----------------------------------------------------------------------------------------|

C#|-------------------------------------------------|
G#|-------------------------------------------------|
E |-14-14-14-14-14-14-14-14-17-17-17-17-17-17-17-17-|
B |-------------------------------------------------|
F#|-12-12-12-12-12-12-12-12-15-15-15-15-15-15-15-15-|
B |-------------------------------------------------|
|

-----------------------------------------------|
-----------------------------------------------|
12-12-12-12-12-12-12-12-15-15-15-15-15-15-15-15|
-----------------------------------------------|
10-10-10-10-10-10-10-10-13-13-13-13-13-13-13-13|
-----------------------------------------------|


Chorus


Ending
C#|----------------------------------------------------------------------------|
G#|----------------------------------------------------------------------------|
E |----------------------------------------------------------------------------|
B |----------------------------------------------------------------------------|
F#|-5-5-5-----5-5-6-6-6-6-----3-3-5-5-5-5-----5-5-6-/12-10---------------------|
B |-0-0-0-----0-0-0-0-0-0-----0-0-0-0-0-0-----0-0-0--------12-10-10-0-10-12\---|


Note: To play the variation in the second and third choruses, first slide down from the 12th fret
and then palm mute the same way as in the bridge section.


| /  slide up
| \  slide down
| h  hammer-on
| .  palm mute
===============================================================================
Tap to rate this tab
# A B C D E F G H I J K L M N O P Q R S T U V W X Y Z