Song name
# A B C D E F G H I J K L M N O P Q R S T U V W X Y Z

Evans Blue - Q tab

-------------------------------------------------------------------------------
			     Q - EVANS BLUE
-------------------------------------------------------------------------------
Tabbed by: Tyler S. (damien-fr)
Email:

Tuning: Drop C
Intro: Bend the notes on the third fret beforte you do the pull off. (x3)
e|--x-x----------------------------------------------------------------------|
B|--x-x----------------------------------------------------------------------|
G|--x-x--5/7--7-777----------------------------------------------------------|
D|--x-x--5/7--7-777------0-------0-------------------------------------------|
A|--x-x--3/5--5-555--3p0-0--3p0--0-------------------------------------------|
E|--x-x--------------3p0-0--3p0--0-------------------------------------------|

e|---------------------------------------------------------------------------|
B|---------------------------------------------------------------------------|
G|--3/5--5-5555--------------------------------------------------------------|
D|--3/5--5-5555-x------------------------------------------------------------|
A|--1/3--3-3333-x--3p0--1p0--------------------------------------------------|
E|--------------x--3p0--1p0--------------------------------------------------|

Verse (x 2)
e|---------------------------------------------------------------------------|
B|---------------------------------------------------------------------------|
G|---------------------------------------------------------------------------|
D|--0~--5/7--8~--------------------------------------------------------------|
A|--0~--5/7--8~--------------------------------------------------------------|
E|--0~--5/7--8~--------------------------------------------------------------|

Prechorus (x2) ("It was the hardest part to know, it was the fastest we could run" etc)
e|---------------------------------------------------------------------------|
B|---------------------------------------------------------------------------|
G|---5-55-5-5-55--7-77-7-7-77------------------------------------------------|
D|---5-55-5-5-55--7-77-7-7-77---4-44-4-444--2-22-2-22------------------------|
A|---3-33-3-3-33--5-55-5-5-55---2-22-2-222--0-00-0-00------------------------|
E|---3-33-3-3-33--5-55-5-5-55---2-22-2-222--0-00-0-00------------------------|

Chorus
e|---------------------------------------------------------------------------|
B|---------------------------------------------------------------------------|
G|---------------------------------------------------------------------------|
D|--7-7-7~--7-7-7~---5-5-5~--5-5-5~--2-2-2-0-00-0-2-2-22-2-22--22------------|
A|--7-7-7~--7-7-7~---5-5-5~--5-5-5~--2-2-2-0-00-0-2-2-22-2-22--22------------|
E|--7-7-7~--7-7-7~---5-5-5~--5-5-5~--2-2-2-0-00-0-2-2-22-2-22--22------------|
                                           . .. .
e|---------------------------------------------------------------------------|
B|---------------------------------------------------------------------------|
G|-55-555-55---7-7-77-7-77---------------------------------------------------|
D|-55-555-55---7-7-77-7-77---------------------------------------------------|
A|-33-333-33---5-5-55-5-55---------------------------------------------------|
E|-33-333-33---5-5-55-5-55---------------------------------------------------|

Then play the intro again and repeat. The only other part is the bridge which is easy to 
out. If you want me to tab it out anyway just comment.

| /  slide up
| \  slide down
| h  hammer-on
| p  pull-off
| ~  vibrato
| +  harmonic
| x  Mute note
===============================================================================
Tap to rate this tab
# A B C D E F G H I J K L M N O P Q R S T U V W X Y Z